  0
SECTION
  2
HEADER
  9
$ACADVER
  1
AC1024
  9
$ACADMAINTVER
 70
     6
  9
$DWGCODEPAGE
  3
ANSI_1250
  9
$INSBASE
 10
0.0
 20
0.0
 30
0.0
  9
$EXTMIN
 10
1.000000000000000E+20
 20
1.000000000000000E+20
 30
1.000000000000000E+20
  9
$EXTMAX
 10
-1.000000000000000E+20
 20
-1.000000000000000E+20
 30
-1.000000000000000E+20
  9
$LIMMIN
 10
0.0
 20
0.0
  9
$LIMMAX
 10
12.0
 20
9.0
  9
$ORTHOMODE
 70
     0
  9
$REGENMODE
 70
     1
  9
$FILLMODE
 70
     1
  9
$QTEXTMODE
 70
     0
  9
$MIRRTEXT
 70
     1
  9
$LTSCALE
 40
1.0
  9
$ATTMODE
 70
     1
  9
$TEXTSIZE
 40
0.2
  9
$TRACEWID
 40
0.05
  9
$TEXTSTYLE
  7
Standard
  9
$CLAYER
  8
0
  9
$CELTYPE
  6
ByLayer
  9
$CECOLOR
 62
   256
  9
$CELTSCALE
 40
1.0
  9
$DISPSILH
 70
     0
  9
$DIMSCALE
 40
1.0
  9
$DIMASZ
 40
0.18
  9
$DIMEXO
 40
0.0625
  9
$DIMDLI
 40
0.38
  9
$DIMRND
 40
0.0
  9
$DIMDLE
 40
0.0
  9
$DIMEXE
 40
0.18
  9
$DIMTP
 40
0.0
  9
$DIMTM
 40
0.0
  9
$DIMTXT
 40
0.18
  9
$DIMCEN
 40
0.09
  9
$DIMTSZ
 40
0.0
  9
$DIMTOL
 70
     0
  9
$DIMLIM
 70
     0
  9
$DIMTIH
 70
     1
  9
$DIMTOH
 70
     1
  9
$DIMSE1
 70
     0
  9
$DIMSE2
 70
     0
  9
$DIMTAD
 70
     0
  9
$DIMZIN
 70
     0
  9
$DIMBLK
  1

  9
$DIMASO
 70
     1
  9
$DIMSHO
 70
     1
  9
$DIMPOST
  1

  9
$DIMAPOST
  1

  9
$DIMALT
 70
     0
  9
$DIMALTD
 70
     2
  9
$DIMALTF
 40
25.4
  9
$DIMLFAC
 40
1.0
  9
$DIMTOFL
 70
     0
  9
$DIMTVP
 40
0.0
  9
$DIMTIX
 70
     0
  9
$DIMSOXD
 70
     0
  9
$DIMSAH
 70
     0
  9
$DIMBLK1
  1

  9
$DIMBLK2
  1

  9
$DIMSTYLE
  2
Standard
  9
$DIMCLRD
 70
     0
  9
$DIMCLRE
 70
     0
  9
$DIMCLRT
 70
     0
  9
$DIMTFAC
 40
1.0
  9
$DIMGAP
 40
0.09
  9
$DIMJUST
 70
     0
  9
$DIMSD1
 70
     0
  9
$DIMSD2
 70
     0
  9
$DIMTOLJ
 70
     1
  9
$DIMTZIN
 70
     0
  9
$DIMALTZ
 70
     0
  9
$DIMALTTZ
 70
     0
  9
$DIMUPT
 70
     0
  9
$DIMDEC
 70
     4
  9
$DIMTDEC
 70
     4
  9
$DIMALTU
 70
     2
  9
$DIMALTTD
 70
     2
  9
$DIMTXSTY
  7
Standard
  9
$DIMAUNIT
 70
     0
  9
$DIMADEC
 70
     0
  9
$DIMALTRND
 40
0.0
  9
$DIMAZIN
 70
     0
  9
$DIMDSEP
 70
    46
  9
$DIMATFIT
 70
     3
  9
$DIMFRAC
 70
     0
  9
$DIMLDRBLK
  1

  9
$DIMLUNIT
 70
     2
  9
$DIMLWD
 70
    -2
  9
$DIMLWE
 70
    -2
  9
$DIMTMOVE
 70
     0
  9
$DIMFXL
 40
1.0
  9
$DIMFXLON
 70
     0
  9
$DIMJOGANG
 40
0.7853981633974483
  9
$DIMTFILL
 70
     0
  9
$DIMTFILLCLR
 70
     0
  9
$DIMARCSYM
 70
     0
  9
$DIMLTYPE
  6

  9
$DIMLTEX1
  6

  9
$DIMLTEX2
  6

  9
$DIMTXTDIRECTION
 70
     0
  9
$LUNITS
 70
     2
  9
$LUPREC
 70
     4
  9
$SKETCHINC
 40
0.1
  9
$FILLETRAD
 40
0.5
  9
$AUNITS
 70
     0
  9
$AUPREC
 70
     0
  9
$MENU
  1
.
  9
$ELEVATION
 40
0.0
  9
$PELEVATION
 40
0.0
  9
$THICKNESS
 40
0.0
  9
$LIMCHECK
 70
     0
  9
$CHAMFERA
 40
0.5
  9
$CHAMFERB
 40
0.5
  9
$CHAMFERC
 40
1.0
  9
$CHAMFERD
 40
0.0
  9
$SKPOLY
 70
     0
  9
$TDCREATE
 40
2457800.689155602
  9
$TDUCREATE
 40
2457800.647488935
  9
$TDUPDATE
 40
2457800.689155787
  9
$TDUUPDATE
 40
2457800.64748912
  9
$TDINDWG
 40
0.0000000116
  9
$TDUSRTIMER
 40
0.0000000116
  9
$USRTIMER
 70
     1
  9
$ANGBASE
 50
0.0
  9
$ANGDIR
 70
     0
  9
$PDMODE
 70
     0
  9
$PDSIZE
 40
0.0
  9
$PLINEWID
 40
0.0
  9
$SPLFRAME
 70
     0
  9
$SPLINETYPE
 70
     6
  9
$SPLINESEGS
 70
     8
  9
$HANDSEED
  5
729
  9
$SURFTAB1
 70
     6
  9
$SURFTAB2
 70
     6
  9
$SURFTYPE
 70
     6
  9
$SURFU
 70
     6
  9
$SURFV
 70
     6
  9
$UCSBASE
  2

  9
$UCSNAME
  2

  9
$UCSORG
 10
0.0
 20
0.0
 30
0.0
  9
$UCSXDIR
 10
1.0
 20
0.0
 30
0.0
  9
$UCSYDIR
 10
0.0
 20
1.0
 30
0.0
  9
$UCSORTHOREF
  2

  9
$UCSORTHOVIEW
 70
     0
  9
$UCSORGTOP
 10
0.0
 20
0.0
 30
0.0
  9
$UCSORGBOTTOM
 10
0.0
 20
0.0
 30
0.0
  9
$UCSORGLEFT
 10
0.0
 20
0.0
 30
0.0
  9
$UCSORGRIGHT
 10
0.0
 20
0.0
 30
0.0
  9
$UCSORGFRONT
 10
0.0
 20
0.0
 30
0.0
  9
$UCSORGBACK
 10
0.0
 20
0.0
 30
0.0
  9
$PUCSBASE
  2

  9
$PUCSNAME
  2

  9
$PUCSORG
 10
0.0
 20
0.0
 30
0.0
  9
$PUCSXDIR
 10
1.0
 20
0.0
 30
0.0
  9
$PUCSYDIR
 10
0.0
 20
1.0
 30
0.0
  9
$PUCSORTHOREF
  2

  9
$PUCSORTHOVIEW
 70
     0
  9
$PUCSORGTOP
 10
0.0
 20
0.0
 30
0.0
  9
$PUCSORGBOTTOM
 10
0.0
 20
0.0
 30
0.0
  9
$PUCSORGLEFT
 10
0.0
 20
0.0
 30
0.0
  9
$PUCSORGRIGHT
 10
0.0
 20
0.0
 30
0.0
  9
$PUCSORGFRONT
 10
0.0
 20
0.0
 30
0.0
  9
$PUCSORGBACK
 10
0.0
 20
0.0
 30
0.0
  9
$USERI1
 70
     0
  9
$USERI2
 70
     0
  9
$USERI3
 70
     0
  9
$USERI4
 70
     0
  9
$USERI5
 70
     0
  9
$USERR1
 40
0.0
  9
$USERR2
 40
0.0
  9
$USERR3
 40
0.0
  9
$USERR4
 40
0.0
  9
$USERR5
 40
0.0
  9
$WORLDVIEW
 70
     1
  9
$SHADEDGE
 70
     3
  9
$SHADEDIF
 70
    70
  9
$TILEMODE
 70
     1
  9
$MAXACTVP
 70
    64
  9
$PINSBASE
 10
0.0
 20
0.0
 30
0.0
  9
$PLIMCHECK
 70
     0
  9
$PEXTMIN
 10
1.000000000000000E+20
 20
1.000000000000000E+20
 30
1.000000000000000E+20
  9
$PEXTMAX
 10
-1.000000000000000E+20
 20
-1.000000000000000E+20
 30
-1.000000000000000E+20
  9
$PLIMMIN
 10
0.0
 20
0.0
  9
$PLIMMAX
 10
12.0
 20
9.0
  9
$UNITMODE
 70
     0
  9
$VISRETAIN
 70
     1
  9
$PLINEGEN
 70
     0
  9
$PSLTSCALE
 70
     1
  9
$TREEDEPTH
 70
  3020
  9
$CMLSTYLE
  2
Standard
  9
$CMLJUST
 70
     0
  9
$CMLSCALE
 40
1.0
  9
$PROXYGRAPHICS
 70
     1
  9
$MEASUREMENT
 70
     0
  9
$CELWEIGHT
370
    -1
  9
$ENDCAPS
280
     0
  9
$JOINSTYLE
280
     0
  9
$LWDISPLAY
290
     1
  9
$INSUNITS
 70
     1
  9
$HYPERLINKBASE
  1

  9
$STYLESHEET
  1

  9
$XEDIT
290
     1
  9
$CEPSNTYPE
380
     0
  9
$PSTYLEMODE
290
     1
  9
$FINGERPRINTGUID
  2
{AF20189D-8407-48CD-9089-61AFCD8D7A8F}
  9
$VERSIONGUID
  2
{FAEB1C32-E019-11D5-929B-00C0DF256EC4}
  9
$EXTNAMES
290
     1
  9
$PSVPSCALE
 40
0.0
  9
$OLESTARTUP
290
     0
  9
$SORTENTS
280
   127
  9
$INDEXCTL
280
     0
  9
$HIDETEXT
280
     1
  9
$XCLIPFRAME
280
     2
  9
$HALOGAP
280
     0
  9
$OBSCOLOR
 70
   257
  9
$OBSLTYPE
280
     0
  9
$INTERSECTIONDISPLAY
280
     0
  9
$INTERSECTIONCOLOR
 70
   257
  9
$DIMASSOC
280
     2
  9
$PROJECTNAME
  1

  9
$CAMERADISPLAY
290
     0
  9
$LENSLENGTH
 40
50.0
  9
$CAMERAHEIGHT
 40
0.0
  9
$STEPSPERSEC
 40
2.0
  9
$STEPSIZE
 40
6.0
  9
$3DDWFPREC
 40
2.0
  9
$PSOLWIDTH
 40
0.25
  9
$PSOLHEIGHT
 40
4.0
  9
$LOFTANG1
 40
1.570796326794897
  9
$LOFTANG2
 40
1.570796326794897
  9
$LOFTMAG1
 40
0.0
  9
$LOFTMAG2
 40
0.0
  9
$LOFTPARAM
 70
     7
  9
$LOFTNORMALS
280
     1
  9
$LATITUDE
 40
37.795
  9
$LONGITUDE
 40
-122.394
  9
$NORTHDIRECTION
 40
0.0
  9
$TIMEZONE
 70
 -8000
  9
$LIGHTGLYPHDISPLAY
280
     1
  9
$TILEMODELIGHTSYNCH
280
     1
  9
$CMATERIAL
347
3C
  9
$SOLIDHIST
280
     1
  9
$SHOWHIST
280
     1
  9
$DWFFRAME
280
     2
  9
$DGNFRAME
280
     2
  9
$REALWORLDSCALE
290
     1
  9
$INTERFERECOLOR
 62
   256
  9
$CSHADOW
280
     0
  9
$SHADOWPLANELOCATION
 40
0.0
  0
ENDSEC
  0
SECTION
  2
CLASSES
  0
CLASS
  1
ACDBDICTIONARYWDFLT
  2
AcDbDictionaryWithDefault
  3
ObjectDBX Classes
 90
        0
 91
        4
280
     0
281
     0
  0
CLASS
  1
VISUALSTYLE
  2
AcDbVisualStyle
  3
ObjectDBX Classes
 90
     4095
 91
        4
280
     0
281
     0
  0
CLASS
  1
MATERIAL
  2
AcDbMaterial
  3
ObjectDBX Classes
 90
     1153
 91
        4
280
     0
281
     0
  0
CLASS
  1
SUN
  2
AcDbSun
  3
SCENEOE
 90
     1024
 91
        4
280
     0
281
     0
  0
ENDSEC
  0
SECTION
  2
TABLES
  0
TABLE
  2
VPORT
  5
8
330
0
100
AcDbSymbolTable
 70
     1
  0
VPORT
  5
29
330
8
100
AcDbSymbolTableRecord
100
AcDbViewportTableRecord
  2
*Active
 70
     0
 10
0.0
 20
0.0
 11
1.0
 21
1.0
 12
0.0
 22
0.0
 13
0.0
 23
0.0
 14
0.5
 24
0.5
 15
0.5
 25
0.5
 16
0.0
 26
0.0
 36
1.0
 17
500.0007637638886
 27
-500.0007637638886
 37
0.0
 40
500.0007637638884
 41
0.9999984722245567
 42
50.0
 43
0.0
 44
0.0
 50
0.0
 51
0.0
 71
     0
 72
   100
 73
     1
 74
     3
 75
     0
 76
     0
 77
     0
 78
     0
281
     0
 65
     1
110
0.0
120
0.0
130
0.0
111
1.0
121
0.0
131
0.0
112
0.0
122
1.0
132
0.0
 79
     0
146
0.0
 60
     3
 61
     5
292
     1
282
     1
141
0.0
142
0.0
 63
   250
361
3F
  0
ENDTAB
  0
TABLE
  2
LTYPE
  5
5
330
0
100
AcDbSymbolTable
 70
     1
  0
LTYPE
  5
14
330
5
100
AcDbSymbolTableRecord
100
AcDbLinetypeTableRecord
  2
ByBlock
 70
     0
  3

 72
    65
 73
     0
 40
0.0
  0
LTYPE
  5
15
330
5
100
AcDbSymbolTableRecord
100
AcDbLinetypeTableRecord
  2
ByLayer
 70
     0
  3

 72
    65
 73
     0
 40
0.0
  0
LTYPE
  5
16
330
5
100
AcDbSymbolTableRecord
100
AcDbLinetypeTableRecord
  2
Continuous
 70
     0
  3
Solid line
 72
    65
 73
     0
 40
0.0
  0
ENDTAB
  0
TABLE
  2
LAYER
  5
2
330
0
100
AcDbSymbolTable
 70
     3
  0
LAYER
  5
10
330
2
100
AcDbSymbolTableRecord
100
AcDbLayerTableRecord
  2
0
 70
     0
 62
     7
  6
Continuous
370
    -3
390
F
347
3E
  0
LAYER
  5
40
330
2
100
AcDbSymbolTableRecord
100
AcDbLayerTableRecord
  2
Dimension
 70
     0
 62
     7
  6
Continuous
370
    -3
390
F
347
3E
  0
LAYER
  5
DE
330
2
100
AcDbSymbolTableRecord
100
AcDbLayerTableRecord
  2
Drawing
 70
     0
 62
     7
  6
Continuous
370
    -3
390
F
347
3E
  0
ENDTAB
  0
TABLE
  2
STYLE
  5
3
330
0
100
AcDbSymbolTable
 70
     1
  0
STYLE
  5
11
330
3
100
AcDbSymbolTableRecord
100
AcDbTextStyleTableRecord
  2
Standard
 70
     0
 40
0.0
 41
1.0
 50
0.0
 71
     0
 42
0.2
  3
txt
  4

  0
ENDTAB
  0
TABLE
  2
VIEW
  5
6
330
0
100
AcDbSymbolTable
 70
     0
  0
ENDTAB
  0
TABLE
  2
UCS
  5
7
330
0
100
AcDbSymbolTable
 70
     0
  0
ENDTAB
  0
TABLE
  2
APPID
  5
9
330
0
100
AcDbSymbolTable
 70
     1
  0
APPID
  5
12
330
9
100
AcDbSymbolTableRecord
100
AcDbRegAppTableRecord
  2
ACAD
 70
     0
  0
ENDTAB
  0
TABLE
  2
DIMSTYLE
  5
A
330
0
100
AcDbSymbolTable
 70
     1
100
AcDbDimStyleTable
  0
DIMSTYLE
105
27
330
A
100
AcDbSymbolTableRecord
100
AcDbDimStyleTableRecord
  2
Standard
 70
     0
178
     0
340
11
  0
ENDTAB
  0
TABLE
  2
BLOCK_RECORD
  5
1
330
0
100
AcDbSymbolTable
 70
    18
  0
BLOCK_RECORD
  5
1F
330
1
100
AcDbSymbolTableRecord
100
AcDbBlockTableRecord
  2
*Model_Space
340
22
 70
     0
280
     1
281
     0
  0
BLOCK_RECORD
  5
1B
330
1
100
AcDbSymbolTableRecord
100
AcDbBlockTableRecord
  2
*Paper_Space
340
1E
 70
     0
280
     1
281
     0
  0
BLOCK_RECORD
  5
23
330
1
100
AcDbSymbolTableRecord
100
AcDbBlockTableRecord
  2
*Paper_Space0
340
26
 70
     0
280
     1
281
     0
  0
BLOCK_RECORD
  5
41
330
1
100
AcDbSymbolTableRecord
100
AcDbBlockTableRecord
  2
block 2
340
0
102
{BLKREFS
331
42
102
}
 70
     0
280
     1
281
     0
  0
BLOCK_RECORD
  5
45
330
1
100
AcDbSymbolTableRecord
100
AcDbBlockTableRecord
  2
block 3
340
0
102
{BLKREFS
331
46
102
}
 70
     0
280
     1
281
     0
  0
BLOCK_RECORD
  5
49
330
1
100
AcDbSymbolTableRecord
100
AcDbBlockTableRecord
  2
block 4
340
0
102
{BLKREFS
331
4A
102
}
 70
     0
280
     1
281
     0
  0
BLOCK_RECORD
  5
4E
330
1
100
AcDbSymbolTableRecord
100
AcDbBlockTableRecord
  2
block 5
340
0
102
{BLKREFS
331
4F
102
}
 70
     0
280
     1
281
     0
  0
BLOCK_RECORD
  5
5A
330
1
100
AcDbSymbolTableRecord
100
AcDbBlockTableRecord
  2
block 6
340
0
102
{BLKREFS
331
5B
102
}
 70
     0
280
     1
281
     0
  0
BLOCK_RECORD
  5
62
330
1
100
AcDbSymbolTableRecord
100
AcDbBlockTableRecord
  2
block 7
340
0
102
{BLKREFS
331
63
102
}
 70
     0
280
     1
281
     0
  0
BLOCK_RECORD
  5
78
330
1
100
AcDbSymbolTableRecord
100
AcDbBlockTableRecord
  2
block 8
340
0
102
{BLKREFS
331
79
102
}
 70
     0
280
     1
281
     0
  0
BLOCK_RECORD
  5
7C
330
1
100
AcDbSymbolTableRecord
100
AcDbBlockTableRecord
  2
block 9
340
0
102
{BLKREFS
331
7D
102
}
 70
     0
280
     1
281
     0
  0
BLOCK_RECORD
  5
81
330
1
100
AcDbSymbolTableRecord
100
AcDbBlockTableRecord
  2
block 10
340
0
102
{BLKREFS
331
82
102
}
 70
     0
280
     1
281
     0
  0
BLOCK_RECORD
  5
8D
330
1
100
AcDbSymbolTableRecord
100
AcDbBlockTableRecord
  2
block 11
340
0
102
{BLKREFS
331
8E
102
}
 70
     0
280
     1
281
     0
  0
BLOCK_RECORD
  5
95
330
1
100
AcDbSymbolTableRecord
100
AcDbBlockTableRecord
  2
block 12
340
0
102
{BLKREFS
331
96
102
}
 70
     0
280
     1
281
     0
  0
BLOCK_RECORD
  5
AB
330
1
100
AcDbSymbolTableRecord
100
AcDbBlockTableRecord
  2
block 13
340
0
102
{BLKREFS
331
AC
102
}
 70
     0
280
     1
281
     0
  0
BLOCK_RECORD
  5
AF
330
1
100
AcDbSymbolTableRecord
100
AcDbBlockTableRecord
  2
block 14
340
0
102
{BLKREFS
331
B0
102
}
 70
     0
280
     1
281
     0
  0
BLOCK_RECORD
  5
B4
330
1
100
AcDbSymbolTableRecord
100
AcDbBlockTableRecord
  2
block 15
340
0
102
{BLKREFS
331
B5
102
}
 70
     0
280
     1
281
     0
  0
BLOCK_RECORD
  5
C0
330
1
100
AcDbSymbolTableRecord
100
AcDbBlockTableRecord
  2
block 16
340
0
102
{BLKREFS
331
C1
102
}
 70
     0
280
     1
281
     0
  0
BLOCK_RECORD
  5
C8
330
1
100
AcDbSymbolTableRecord
100
AcDbBlockTableRecord
  2
block 17
340
0
102
{BLKREFS
331
C9
102
}
 70
     0
280
     1
281
     0
  0
BLOCK_RECORD
  5
DF
330
1
100
AcDbSymbolTableRecord
100
AcDbBlockTableRecord
  2
block 18
340
0
102
{BLKREFS
331
E0
102
}
 70
     0
280
     1
281
     0
  0
ENDTAB
  0
ENDSEC
  0
SECTION
  2
BLOCKS
  0
BLOCK
  5
20
330
1F
100
AcDbEntity
  8
0
100
AcDbBlockBegin
  2
*Model_Space
 70
     0
 10
0.0
 20
0.0
 30
0.0
  3
*Model_Space
  1

  0
ENDBLK
  5
21
330
1F
100
AcDbEntity
  8
0
100
AcDbBlockEnd
  0
BLOCK
  5
1C
330
1B
100
AcDbEntity
 67
     1
  8
0
100
AcDbBlockBegin
  2
*Paper_Space
 70
     0
 10
0.0
 20
0.0
 30
0.0
  3
*Paper_Space
  1

  0
ENDBLK
  5
1D
330
1B
100
AcDbEntity
 67
     1
  8
0
100
AcDbBlockEnd
  0
BLOCK
  5
24
330
23
100
AcDbEntity
  8
0
100
AcDbBlockBegin
  2
*Paper_Space0
 70
     0
 10
0.0
 20
0.0
 30
0.0
  3
*Paper_Space0
  1

  0
ENDBLK
  5
25
330
23
100
AcDbEntity
  8
0
100
AcDbBlockEnd
  0
BLOCK
  5
43
330
41
100
AcDbEntity
  8
0
100
AcDbBlockBegin
  2
block 2
 70
     0
 10
0.0
 20
0.0
 30
0.0
  3
block 2
  1

  0
INSERT
  5
46
330
41
100
AcDbEntity
  8
Dimension
100
AcDbBlockReference
  2
block 3
 10
0.0
 20
0.0
 30
0.0
  0
INSERT
  5
79
330
41
100
AcDbEntity
  8
Dimension
100
AcDbBlockReference
  2
block 8
 10
0.0
 20
0.0
 30
0.0
  0
INSERT
  5
AC
330
41
100
AcDbEntity
  8
Dimension
100
AcDbBlockReference
  2
block 13
 10
0.0
 20
0.0
 30
0.0
  0
ENDBLK
  5
44
330
41
100
AcDbEntity
  8
0
100
AcDbBlockEnd
  0
BLOCK
  5
47
330
45
100
AcDbEntity
  8
0
100
AcDbBlockBegin
  2
block 3
 70
     0
 10
0.0
 20
0.0
 30
0.0
  3
block 3
  1

  0
INSERT
  5
4A
330
45
100
AcDbEntity
  8
Dimension
100
AcDbBlockReference
  2
block 4
 10
0.0
 20
0.0
 30
0.0
  0
INSERT
  5
4F
330
45
100
AcDbEntity
  8
Dimension
100
AcDbBlockReference
  2
block 5
 10
0.0
 20
0.0
 30
0.0
  0
ENDBLK
  5
48
330
45
100
AcDbEntity
  8
0
100
AcDbBlockEnd
  0
BLOCK
  5
4B
330
49
100
AcDbEntity
  8
0
100
AcDbBlockBegin
  2
block 4
 70
     0
 10
0.0
 20
0.0
 30
0.0
  3
block 4
  1

  0
MTEXT
  5
4D
330
49
100
AcDbEntity
  8
Dimension
 62
   250
420
  1842203
100
AcDbMText
 10
410.2669473258187
 20
-551.7049548995087
 30
0.0
 40
8.629581058252151
 41
0.0
 46
0.0
 71
     7
 72
     1
  1
\fArial|b0|i0|c0|p34;\W1;168
 11
6.123233995736766E-17
 21
1.0
 31
0.0
 73
     1
 44
1.0
  0
ENDBLK
  5
4C
330
49
100
AcDbEntity
  8
0
100
AcDbBlockEnd
  0
BLOCK
  5
50
330
4E
100
AcDbEntity
  8
0
100
AcDbBlockBegin
  2
block 5
 70
     0
 10
0.0
 20
0.0
 30
0.0
  3
block 5
  1

  0
POLYLINE
  5
52
330
4E
100
AcDbEntity
  8
Dimension
 62
   250
420
  1842203
370
    40
100
AcDb2dPolyline
 66
     1
 10
0.0
 20
0.0
 30
0.0
  0
VERTEX
  5
53
330
52
100
AcDbEntity
  8
Dimension
 62
   250
420
  1842203
370
    40
100
AcDbVertex
100
AcDb2dVertex
 10
433.602120624506
 20
-457.5731582244061
 30
0.0
  0
VERTEX
  5
54
330
52
100
AcDbEntity
  8
Dimension
 62
   250
420
  1842203
370
    40
100
AcDbVertex
100
AcDb2dVertex
 10
414.2785799034049
 20
-457.5731582244061
 30
0.0
  0
SEQEND
  5
55
330
52
100
AcDbEntity
  8
Dimension
 62
   250
420
  1842203
370
    40
  0
POLYLINE
  5
56
330
4E
100
AcDbEntity
  8
Dimension
 62
   250
420
  1842203
370
    40
100
AcDb2dPolyline
 66
     1
 10
0.0
 20
0.0
 30
0.0
  0
VERTEX
  5
57
330
56
100
AcDbEntity
  8
Dimension
 62
   250
420
  1842203
370
    40
100
AcDbVertex
100
AcDb2dVertex
 10
433.602120624506
 20
-625.421147664074
 30
0.0
  0
VERTEX
  5
58
330
56
100
AcDbEntity
  8
Dimension
 62
   250
420
  1842203
370
    40
100
AcDbVertex
100
AcDb2dVertex
 10
414.2794505229733
 20
-625.421147664074
 30
0.0
  0
SEQEND
  5
59
330
56
100
AcDbEntity
  8
Dimension
 62
   250
420
  1842203
370
    40
  0
INSERT
  5
5B
330
4E
100
AcDbEntity
  8
Dimension
100
AcDbBlockReference
  2
block 6
 10
0.0
 20
0.0
 30
0.0
  0
INSERT
  5
63
330
4E
100
AcDbEntity
  8
Dimension
100
AcDbBlockReference
  2
block 7
 10
0.0
 20
0.0
 30
0.0
  0
POLYLINE
  5
6A
330
4E
100
AcDbEntity
  8
Dimension
370
     0
100
AcDb2dPolyline
 66
     1
 10
0.0
 20
0.0
 30
0.0
  0
VERTEX
  5
6B
330
6A
100
AcDbEntity
  8
Dimension
370
     0
100
AcDbVertex
100
AcDb2dVertex
 10
414.2785799034049
 20
-467.8276634783059
 30
0.0
  0
VERTEX
  5
6C
330
6A
100
AcDbEntity
  8
Dimension
370
     0
100
AcDbVertex
100
AcDb2dVertex
 10
416.7474828727097
 20
-467.8276634783059
 30
0.0
  0
VERTEX
  5
6D
330
6A
100
AcDbEntity
  8
Dimension
370
     0
100
AcDbVertex
100
AcDb2dVertex
 10
415.5131184500127
 20
-457.5731582244061
 30
0.0
  0
VERTEX
  5
6E
330
6A
100
AcDbEntity
  8
Dimension
370
     0
100
AcDbVertex
100
AcDb2dVertex
 10
414.2785799034049
 20
-467.8276634783059
 30
0.0
  0
SEQEND
  5
70
330
6A
100
AcDbEntity
  8
Dimension
370
     0
  0
HATCH
  5
6F
330
4E
100
AcDbEntity
  8
Dimension
 62
   250
420
  1842203
100
AcDbHatch
 10
0.0
 20
0.0
 30
0.0
210
0.0
220
0.0
230
1.0
  2
SOLID
 70
     1
 71
     0
 91
        1
 92
        1
 93
        3
 72
     1
 10
414.2785799034049
 20
-467.8276634783059
 11
416.7474828727097
 21
-467.8276634783059
 72
     1
 10
416.7474828727097
 20
-467.8276634783059
 11
415.5131184500127
 21
-457.5731582244061
 72
     1
 10
415.5131184500127
 20
-457.5731582244061
 11
414.2785799034049
 21
-467.8276634783059
 97
        0
 75
     2
 76
     1
 98
        0
  0
POLYLINE
  5
71
330
4E
100
AcDbEntity
  8
Dimension
370
     0
100
AcDb2dPolyline
 66
     1
 10
0.0
 20
0.0
 30
0.0
  0
VERTEX
  5
72
330
71
100
AcDbEntity
  8
Dimension
370
     0
100
AcDbVertex
100
AcDb2dVertex
 10
416.7483534922782
 20
-615.1676871536278
 30
0.0
  0
VERTEX
  5
73
330
71
100
AcDbEntity
  8
Dimension
370
     0
100
AcDbVertex
100
AcDb2dVertex
 10
414.2794505229733
 20
-615.1676871536278
 30
0.0
  0
VERTEX
  5
74
330
71
100
AcDbEntity
  8
Dimension
370
     0
100
AcDbVertex
100
AcDb2dVertex
 10
415.5138149456665
 20
-625.421147664074
 30
0.0
  0
VERTEX
  5
75
330
71
100
AcDbEntity
  8
Dimension
370
     0
100
AcDbVertex
100
AcDb2dVertex
 10
416.7483534922782
 20
-615.1676871536278
 30
0.0
  0
SEQEND
  5
77
330
71
100
AcDbEntity
  8
Dimension
370
     0
  0
HATCH
  5
76
330
4E
100
AcDbEntity
  8
Dimension
 62
   250
420
  1842203
100
AcDbHatch
 10
0.0
 20
0.0
 30
0.0
210
0.0
220
0.0
230
1.0
  2
SOLID
 70
     1
 71
     0
 91
        1
 92
        1
 93
        3
 72
     1
 10
416.7483534922782
 20
-615.1676871536278
 11
414.2794505229733
 21
-615.1676871536278
 72
     1
 10
414.2794505229733
 20
-615.1676871536278
 11
415.5138149456665
 21
-625.421147664074
 72
     1
 10
415.5138149456665
 20
-625.421147664074
 11
416.7483534922782
 21
-615.1676871536278
 97
        0
 75
     2
 76
     1
 98
        0
  0
ENDBLK
  5
51
330
4E
100
AcDbEntity
  8
0
100
AcDbBlockEnd
  0
BLOCK
  5
5C
330
5A
100
AcDbEntity
  8
0
100
AcDbBlockBegin
  2
block 6
 70
     0
 10
0.0
 20
0.0
 30
0.0
  3
block 6
  1

  0
POLYLINE
  5
5E
330
5A
100
AcDbEntity
  8
Dimension
 62
   250
420
  1842203
370
    40
100
AcDb2dPolyline
 66
     1
 10
0.0
 20
0.0
 30
0.0
  0
VERTEX
  5
5F
330
5E
100
AcDbEntity
  8
Dimension
 62
   250
420
  1842203
370
    40
100
AcDbVertex
100
AcDb2dVertex
 10
415.5131184500127
 20
-460.5701789475956
 30
0.0
  0
VERTEX
  5
60
330
5E
100
AcDbEntity
  8
Dimension
 62
   250
420
  1842203
370
    40
100
AcDbVertex
100
AcDb2dVertex
 10
415.5131184500127
 20
-622.4216892061568
 30
0.0
  0
SEQEND
  5
61
330
5E
100
AcDbEntity
  8
Dimension
 62
   250
420
  1842203
370
    40
  0
ENDBLK
  5
5D
330
5A
100
AcDbEntity
  8
0
100
AcDbBlockEnd
  0
BLOCK
  5
64
330
62
100
AcDbEntity
  8
0
100
AcDbBlockBegin
  2
block 7
 70
     0
 10
0.0
 20
0.0
 30
0.0
  3
block 7
  1

  0
POLYLINE
  5
66
330
62
100
AcDbEntity
  8
Dimension
 62
   250
420
  1842203
370
    40
100
AcDb2dPolyline
 66
     1
 10
0.0
 20
0.0
 30
0.0
  0
VERTEX
  5
67
330
66
100
AcDbEntity
  8
Dimension
 62
   250
420
  1842203
370
    40
100
AcDbVertex
100
AcDb2dVertex
 10
415.5131184500127
 20
-625.421147664074
 30
0.0
  0
VERTEX
  5
68
330
66
100
AcDbEntity
  8
Dimension
 62
   250
420
  1842203
370
    40
100
AcDbVertex
100
AcDb2dVertex
 10
415.5131184500127
 20
-625.421147664074
 30
0.0
  0
SEQEND
  5
69
330
66
100
AcDbEntity
  8
Dimension
 62
   250
420
  1842203
370
    40
  0
ENDBLK
  5
65
330
62
100
AcDbEntity
  8
0
100
AcDbBlockEnd
  0
BLOCK
  5
7A
330
78
100
AcDbEntity
  8
0
100
AcDbBlockBegin
  2
block 8
 70
     0
 10
0.0
 20
0.0
 30
0.0
  3
block 8
  1

  0
INSERT
  5
7D
330
78
100
AcDbEntity
  8
Dimension
100
AcDbBlockReference
  2
block 9
 10
0.0
 20
0.0
 30
0.0
  0
INSERT
  5
82
330
78
100
AcDbEntity
  8
Dimension
100
AcDbBlockReference
  2
block 10
 10
0.0
 20
0.0
 30
0.0
  0
ENDBLK
  5
7B
330
78
100
AcDbEntity
  8
0
100
AcDbBlockEnd
  0
BLOCK
  5
7E
330
7C
100
AcDbEntity
  8
0
100
AcDbBlockBegin
  2
block 9
 70
     0
 10
0.0
 20
0.0
 30
0.0
  3
block 9
  1

  0
MTEXT
  5
80
330
7C
100
AcDbEntity
  8
Dimension
 62
   250
420
  1842203
100
AcDbMText
 10
505.944354460645
 20
-385.0403217624639
 30
0.0
 40
8.629581058252151
 41
0.0
 46
0.0
 71
     7
 72
     1
  1
\fArial|b0|i0|c0|p34;\W1;168
 73
     1
 44
1.0
  0
ENDBLK
  5
7F
330
7C
100
AcDbEntity
  8
0
100
AcDbBlockEnd
  0
BLOCK
  5
83
330
81
100
AcDbEntity
  8
0
100
AcDbBlockBegin
  2
block 10
 70
     0
 10
0.0
 20
0.0
 30
0.0
  3
block 10
  1

  0
POLYLINE
  5
85
330
81
100
AcDbEntity
  8
Dimension
 62
   250
420
  1842203
370
    40
100
AcDb2dPolyline
 66
     1
 10
0.0
 20
0.0
 30
0.0
  0
VERTEX
  5
86
330
85
100
AcDbEntity
  8
Dimension
 62
   250
420
  1842203
370
    40
100
AcDbVertex
100
AcDb2dVertex
 10
600.0760782863016
 20
-400.2617634529177
 30
0.0
  0
VERTEX
  5
87
330
85
100
AcDbEntity
  8
Dimension
 62
   250
420
  1842203
370
    40
100
AcDbVertex
100
AcDb2dVertex
 10
600.0760782863016
 20
-389.0526227295764
 30
0.0
  0
SEQEND
  5
88
330
85
100
AcDbEntity
  8
Dimension
 62
   250
420
  1842203
370
    40
  0
POLYLINE
  5
89
330
81
100
AcDbEntity
  8
Dimension
 62
   250
420
  1842203
370
    40
100
AcDb2dPolyline
 66
     1
 10
0.0
 20
0.0
 30
0.0
  0
VERTEX
  5
8A
330
89
100
AcDbEntity
  8
Dimension
 62
   250
420
  1842203
370
    40
100
AcDbVertex
100
AcDb2dVertex
 10
432.2280888466338
 20
-400.2617634529177
 30
0.0
  0
VERTEX
  5
8B
330
89
100
AcDbEntity
  8
Dimension
 62
   250
420
  1842203
370
    40
100
AcDbVertex
100
AcDb2dVertex
 10
432.2280888466338
 20
-389.0534933491448
 30
0.0
  0
SEQEND
  5
8C
330
89
100
AcDbEntity
  8
Dimension
 62
   250
420
  1842203
370
    40
  0
INSERT
  5
8E
330
81
100
AcDbEntity
  8
Dimension
100
AcDbBlockReference
  2
block 11
 10
0.0
 20
0.0
 30
0.0
  0
INSERT
  5
96
330
81
100
AcDbEntity
  8
Dimension
100
AcDbBlockReference
  2
block 12
 10
0.0
 20
0.0
 30
0.0
  0
POLYLINE
  5
9D
330
81
100
AcDbEntity
  8
Dimension
370
     0
100
AcDb2dPolyline
 66
     1
 10
0.0
 20
0.0
 30
0.0
  0
VERTEX
  5
9E
330
9D
100
AcDbEntity
  8
Dimension
370
     0
100
AcDbVertex
100
AcDb2dVertex
 10
589.8215730324014
 20
-389.0526227295764
 30
0.0
  0
VERTEX
  5
9F
330
9D
100
AcDbEntity
  8
Dimension
370
     0
100
AcDbVertex
100
AcDb2dVertex
 10
589.8215730324014
 20
-391.5215256988812
 30
0.0
  0
VERTEX
  5
A0
330
9D
100
AcDbEntity
  8
Dimension
370
     0
100
AcDbVertex
100
AcDb2dVertex
 10
600.0760782863016
 20
-390.2871612761842
 30
0.0
  0
VERTEX
  5
A1
330
9D
100
AcDbEntity
  8
Dimension
370
     0
100
AcDbVertex
100
AcDb2dVertex
 10
589.8215730324014
 20
-389.0526227295764
 30
0.0
  0
SEQEND
  5
A3
330
9D
100
AcDbEntity
  8
Dimension
370
     0
  0
HATCH
  5
A2
330
81
100
AcDbEntity
  8
Dimension
 62
   250
420
  1842203
100
AcDbHatch
 10
0.0
 20
0.0
 30
0.0
210
0.0
220
0.0
230
1.0
  2
SOLID
 70
     1
 71
     0
 91
        1
 92
        1
 93
        3
 72
     1
 10
589.8215730324014
 20
-389.0526227295764
 11
589.8215730324014
 21
-391.5215256988812
 72
     1
 10
589.8215730324014
 20
-391.5215256988812
 11
600.0760782863016
 21
-390.2871612761842
 72
     1
 10
600.0760782863016
 20
-390.2871612761842
 11
589.8215730324014
 21
-389.0526227295764
 97
        0
 75
     2
 76
     1
 98
        0
  0
POLYLINE
  5
A4
330
81
100
AcDbEntity
  8
Dimension
370
     0
100
AcDb2dPolyline
 66
     1
 10
0.0
 20
0.0
 30
0.0
  0
VERTEX
  5
A5
330
A4
100
AcDbEntity
  8
Dimension
370
     0
100
AcDbVertex
100
AcDb2dVertex
 10
442.4815493570794
 20
-391.5223963184496
 30
0.0
  0
VERTEX
  5
A6
330
A4
100
AcDbEntity
  8
Dimension
370
     0
100
AcDbVertex
100
AcDb2dVertex
 10
442.4815493570794
 20
-389.0534933491448
 30
0.0
  0
VERTEX
  5
A7
330
A4
100
AcDbEntity
  8
Dimension
370
     0
100
AcDbVertex
100
AcDb2dVertex
 10
432.2280888466338
 20
-390.2878577718383
 30
0.0
  0
VERTEX
  5
A8
330
A4
100
AcDbEntity
  8
Dimension
370
     0
100
AcDbVertex
100
AcDb2dVertex
 10
442.4815493570794
 20
-391.5223963184496
 30
0.0
  0
SEQEND
  5
AA
330
A4
100
AcDbEntity
  8
Dimension
370
     0
  0
HATCH
  5
A9
330
81
100
AcDbEntity
  8
Dimension
 62
   250
420
  1842203
100
AcDbHatch
 10
0.0
 20
0.0
 30
0.0
210
0.0
220
0.0
230
1.0
  2
SOLID
 70
     1
 71
     0
 91
        1
 92
        1
 93
        3
 72
     1
 10
442.4815493570794
 20
-391.5223963184496
 11
442.4815493570794
 21
-389.0534933491448
 72
     1
 10
442.4815493570794
 20
-389.0534933491448
 11
432.2280888466338
 21
-390.2878577718383
 72
     1
 10
432.2280888466338
 20
-390.2878577718383
 11
442.4815493570794
 21
-391.5223963184496
 97
        0
 75
     2
 76
     1
 98
        0
  0
ENDBLK
  5
84
330
81
100
AcDbEntity
  8
0
100
AcDbBlockEnd
  0
BLOCK
  5
8F
330
8D
100
AcDbEntity
  8
0
100
AcDbBlockBegin
  2
block 11
 70
     0
 10
0.0
 20
0.0
 30
0.0
  3
block 11
  1

  0
POLYLINE
  5
91
330
8D
100
AcDbEntity
  8
Dimension
 62
   250
420
  1842203
370
    40
100
AcDb2dPolyline
 66
     1
 10
0.0
 20
0.0
 30
0.0
  0
VERTEX
  5
92
330
91
100
AcDbEntity
  8
Dimension
 62
   250
420
  1842203
370
    40
100
AcDbVertex
100
AcDb2dVertex
 10
597.0790575631115
 20
-390.2871612761842
 30
0.0
  0
VERTEX
  5
93
330
91
100
AcDbEntity
  8
Dimension
 62
   250
420
  1842203
370
    40
100
AcDbVertex
100
AcDb2dVertex
 10
435.227547304551
 20
-390.2871612761842
 30
0.0
  0
SEQEND
  5
94
330
91
100
AcDbEntity
  8
Dimension
 62
   250
420
  1842203
370
    40
  0
ENDBLK
  5
90
330
8D
100
AcDbEntity
  8
0
100
AcDbBlockEnd
  0
BLOCK
  5
97
330
95
100
AcDbEntity
  8
0
100
AcDbBlockBegin
  2
block 12
 70
     0
 10
0.0
 20
0.0
 30
0.0
  3
block 12
  1

  0
POLYLINE
  5
99
330
95
100
AcDbEntity
  8
Dimension
 62
   250
420
  1842203
370
    40
100
AcDb2dPolyline
 66
     1
 10
0.0
 20
0.0
 30
0.0
  0
VERTEX
  5
9A
330
99
100
AcDbEntity
  8
Dimension
 62
   250
420
  1842203
370
    40
100
AcDbVertex
100
AcDb2dVertex
 10
432.2280888466338
 20
-390.2871612761842
 30
0.0
  0
VERTEX
  5
9B
330
99
100
AcDbEntity
  8
Dimension
 62
   250
420
  1842203
370
    40
100
AcDbVertex
100
AcDb2dVertex
 10
432.2280888466338
 20
-390.2871612761842
 30
0.0
  0
SEQEND
  5
9C
330
99
100
AcDbEntity
  8
Dimension
 62
   250
420
  1842203
370
    40
  0
ENDBLK
  5
98
330
95
100
AcDbEntity
  8
0
100
AcDbBlockEnd
  0
BLOCK
  5
AD
330
AB
100
AcDbEntity
  8
0
100
AcDbBlockBegin
  2
block 13
 70
     0
 10
0.0
 20
0.0
 30
0.0
  3
block 13
  1

  0
INSERT
  5
B0
330
AB
100
AcDbEntity
  8
Dimension
100
AcDbBlockReference
  2
block 14
 10
0.0
 20
0.0
 30
0.0
  0
INSERT
  5
B5
330
AB
100
AcDbEntity
  8
Dimension
100
AcDbBlockReference
  2
block 15
 10
0.0
 20
0.0
 30
0.0
  0
ENDBLK
  5
AE
330
AB
100
AcDbEntity
  8
0
100
AcDbBlockEnd
  0
BLOCK
  5
B1
330
AF
100
AcDbEntity
  8
0
100
AcDbBlockBegin
  2
block 14
 70
     0
 10
0.0
 20
0.0
 30
0.0
  3
block 14
  1

  0
MTEXT
  5
B3
330
AF
100
AcDbEntity
  8
Dimension
 62
   250
420
  1842203
100
AcDbMText
 10
410.2669473258187
 20
-421.2442273252445
 30
0.0
 40
8.629581058252151
 41
0.0
 46
0.0
 71
     7
 72
     1
  1
\fArial|b0|i0|c0|p34;\W1;25
 11
6.123233995736766E-17
 21
1.0
 31
0.0
 73
     1
 44
1.0
  0
ENDBLK
  5
B2
330
AF
100
AcDbEntity
  8
0
100
AcDbBlockEnd
  0
BLOCK
  5
B6
330
B4
100
AcDbEntity
  8
0
100
AcDbBlockBegin
  2
block 15
 70
     0
 10
0.0
 20
0.0
 30
0.0
  3
block 15
  1

  0
POLYLINE
  5
B8
330
B4
100
AcDbEntity
  8
Dimension
 62
   250
420
  1842203
370
    40
100
AcDb2dPolyline
 66
     1
 10
0.0
 20
0.0
 30
0.0
  0
VERTEX
  5
B9
330
B8
100
AcDbEntity
  8
Dimension
 62
   250
420
  1842203
370
    40
100
AcDbVertex
100
AcDb2dVertex
 10
430.7408835878542
 20
-402.2236673710922
 30
0.0
  0
VERTEX
  5
BA
330
B8
100
AcDbEntity
  8
Dimension
 62
   250
420
  1842203
370
    40
100
AcDbVertex
100
AcDb2dVertex
 10
414.2785799034049
 20
-402.2236673710922
 30
0.0
  0
SEQEND
  5
BB
330
B8
100
AcDbEntity
  8
Dimension
 62
   250
420
  1842203
370
    40
  0
POLYLINE
  5
BC
330
B4
100
AcDbEntity
  8
Dimension
 62
   250
420
  1842203
370
    40
100
AcDb2dPolyline
 66
     1
 10
0.0
 20
0.0
 30
0.0
  0
VERTEX
  5
BD
330
BC
100
AcDbEntity
  8
Dimension
 62
   250
420
  1842203
370
    40
100
AcDbVertex
100
AcDb2dVertex
 10
430.7408835878542
 20
-427.0586064329328
 30
0.0
  0
VERTEX
  5
BE
330
BC
100
AcDbEntity
  8
Dimension
 62
   250
420
  1842203
370
    40
100
AcDbVertex
100
AcDb2dVertex
 10
414.2794505229733
 20
-427.0586064329328
 30
0.0
  0
SEQEND
  5
BF
330
BC
100
AcDbEntity
  8
Dimension
 62
   250
420
  1842203
370
    40
  0
INSERT
  5
C1
330
B4
100
AcDbEntity
  8
Dimension
100
AcDbBlockReference
  2
block 16
 10
0.0
 20
0.0
 30
0.0
  0
INSERT
  5
C9
330
B4
100
AcDbEntity
  8
Dimension
100
AcDbBlockReference
  2
block 17
 10
0.0
 20
0.0
 30
0.0
  0
POLYLINE
  5
D0
330
B4
100
AcDbEntity
  8
Dimension
370
     0
100
AcDb2dPolyline
 66
     1
 10
0.0
 20
0.0
 30
0.0
  0
VERTEX
  5
D1
330
D0
100
AcDbEntity
  8
Dimension
370
     0
100
AcDbVertex
100
AcDb2dVertex
 10
414.2785799034049
 20
-412.4781726249925
 30
0.0
  0
VERTEX
  5
D2
330
D0
100
AcDbEntity
  8
Dimension
370
     0
100
AcDbVertex
100
AcDb2dVertex
 10
416.7474828727097
 20
-412.4781726249925
 30
0.0
  0
VERTEX
  5
D3
330
D0
100
AcDbEntity
  8
Dimension
370
     0
100
AcDbVertex
100
AcDb2dVertex
 10
415.5131184500127
 20
-402.2236673710922
 30
0.0
  0
VERTEX
  5
D4
330
D0
100
AcDbEntity
  8
Dimension
370
     0
100
AcDbVertex
100
AcDb2dVertex
 10
414.2785799034049
 20
-412.4781726249925
 30
0.0
  0
SEQEND
  5
D6
330
D0
100
AcDbEntity
  8
Dimension
370
     0
  0
HATCH
  5
D5
330
B4
100
AcDbEntity
  8
Dimension
 62
   250
420
  1842203
100
AcDbHatch
 10
0.0
 20
0.0
 30
0.0
210
0.0
220
0.0
230
1.0
  2
SOLID
 70
     1
 71
     0
 91
        1
 92
        1
 93
        3
 72
     1
 10
414.2785799034049
 20
-412.4781726249925
 11
416.7474828727097
 21
-412.4781726249925
 72
     1
 10
416.7474828727097
 20
-412.4781726249925
 11
415.5131184500127
 21
-402.2236673710922
 72
     1
 10
415.5131184500127
 20
-402.2236673710922
 11
414.2785799034049
 21
-412.4781726249925
 97
        0
 75
     2
 76
     1
 98
        0
  0
POLYLINE
  5
D7
330
B4
100
AcDbEntity
  8
Dimension
370
     0
100
AcDb2dPolyline
 66
     1
 10
0.0
 20
0.0
 30
0.0
  0
VERTEX
  5
D8
330
D7
100
AcDbEntity
  8
Dimension
370
     0
100
AcDbVertex
100
AcDb2dVertex
 10
416.7483534922782
 20
-416.8051459224876
 30
0.0
  0
VERTEX
  5
D9
330
D7
100
AcDbEntity
  8
Dimension
370
     0
100
AcDbVertex
100
AcDb2dVertex
 10
414.2794505229733
 20
-416.8051459224876
 30
0.0
  0
VERTEX
  5
DA
330
D7
100
AcDbEntity
  8
Dimension
370
     0
100
AcDbVertex
100
AcDb2dVertex
 10
415.5138149456665
 20
-427.0586064329328
 30
0.0
  0
VERTEX
  5
DB
330
D7
100
AcDbEntity
  8
Dimension
370
     0
100
AcDbVertex
100
AcDb2dVertex
 10
416.7483534922782
 20
-416.8051459224876
 30
0.0
  0
SEQEND
  5
DD
330
D7
100
AcDbEntity
  8
Dimension
370
     0
  0
HATCH
  5
DC
330
B4
100
AcDbEntity
  8
Dimension
 62
   250
420
  1842203
100
AcDbHatch
 10
0.0
 20
0.0
 30
0.0
210
0.0
220
0.0
230
1.0
  2
SOLID
 70
     1
 71
     0
 91
        1
 92
        1
 93
        3
 72
     1
 10
416.7483534922782
 20
-416.8051459224876
 11
414.2794505229733
 21
-416.8051459224876
 72
     1
 10
414.2794505229733
 20
-416.8051459224876
 11
415.5138149456665
 21
-427.0586064329328
 72
     1
 10
415.5138149456665
 20
-427.0586064329328
 11
416.7483534922782
 21
-416.8051459224876
 97
        0
 75
     2
 76
     1
 98
        0
  0
ENDBLK
  5
B7
330
B4
100
AcDbEntity
  8
0
100
AcDbBlockEnd
  0
BLOCK
  5
C2
330
C0
100
AcDbEntity
  8
0
100
AcDbBlockBegin
  2
block 16
 70
     0
 10
0.0
 20
0.0
 30
0.0
  3
block 16
  1

  0
POLYLINE
  5
C4
330
C0
100
AcDbEntity
  8
Dimension
 62
   250
420
  1842203
370
    40
100
AcDb2dPolyline
 66
     1
 10
0.0
 20
0.0
 30
0.0
  0
VERTEX
  5
C5
330
C4
100
AcDbEntity
  8
Dimension
 62
   250
420
  1842203
370
    40
100
AcDbVertex
100
AcDb2dVertex
 10
415.5131184500127
 20
-405.2206880942823
 30
0.0
  0
VERTEX
  5
C6
330
C4
100
AcDbEntity
  8
Dimension
 62
   250
420
  1842203
370
    40
100
AcDbVertex
100
AcDb2dVertex
 10
415.5131184500127
 20
-424.0591479750156
 30
0.0
  0
SEQEND
  5
C7
330
C4
100
AcDbEntity
  8
Dimension
 62
   250
420
  1842203
370
    40
  0
ENDBLK
  5
C3
330
C0
100
AcDbEntity
  8
0
100
AcDbBlockEnd
  0
BLOCK
  5
CA
330
C8
100
AcDbEntity
  8
0
100
AcDbBlockBegin
  2
block 17
 70
     0
 10
0.0
 20
0.0
 30
0.0
  3
block 17
  1

  0
POLYLINE
  5
CC
330
C8
100
AcDbEntity
  8
Dimension
 62
   250
420
  1842203
370
    40
100
AcDb2dPolyline
 66
     1
 10
0.0
 20
0.0
 30
0.0
  0
VERTEX
  5
CD
330
CC
100
AcDbEntity
  8
Dimension
 62
   250
420
  1842203
370
    40
100
AcDbVertex
100
AcDb2dVertex
 10
415.5131184500127
 20
-427.0586064329328
 30
0.0
  0
VERTEX
  5
CE
330
CC
100
AcDbEntity
  8
Dimension
 62
   250
420
  1842203
370
    40
100
AcDbVertex
100
AcDb2dVertex
 10
415.5131184500127
 20
-427.0586064329328
 30
0.0
  0
SEQEND
  5
CF
330
CC
100
AcDbEntity
  8
Dimension
 62
   250
420
  1842203
370
    40
  0
ENDBLK
  5
CB
330
C8
100
AcDbEntity
  8
0
100
AcDbBlockEnd
  0
BLOCK
  5
E1
330
DF
100
AcDbEntity
  8
0
100
AcDbBlockBegin
  2
block 18
 70
     0
 10
0.0
 20
0.0
 30
0.0
  3
block 18
  1

  0
POLYLINE
  5
E3
330
DF
100
AcDbEntity
  8
Drawing
 62
   250
420
  1842203
370
   100
100
AcDb2dPolyline
 66
     1
 10
0.0
 20
0.0
 30
0.0
  0
VERTEX
  5
E4
330
E3
100
AcDbEntity
  8
Drawing
 62
   250
420
  1842203
370
   100
100
AcDbVertex
100
AcDb2dVertex
 10
440.6947171868275
 20
-465.920976338964
 30
0.0
  0
VERTEX
  5
E5
330
E3
100
AcDbEntity
  8
Drawing
 62
   250
420
  1842203
370
   100
100
AcDbVertex
100
AcDb2dVertex
 10
447.6946861353385
 20
-465.920976338964
 30
0.0
  0
SEQEND
  5
E6
330
E3
100
AcDbEntity
  8
Drawing
 62
   250
420
  1842203
370
   100
  0
POLYLINE
  5
E7
330
DF
100
AcDbEntity
  8
Drawing
 62
   250
420
  1842203
370
   100
100
AcDb2dPolyline
 66
     1
 10
0.0
 20
0.0
 30
0.0
  0
VERTEX
  5
E8
330
E7
100
AcDbEntity
  8
Drawing
 62
   250
420
  1842203
370
   100
100
AcDbVertex
100
AcDb2dVertex
 10
447.6946861353385
 20
-465.920976338964
 30
0.0
  0
VERTEX
  5
E9
330
E7
100
AcDbEntity
  8
Drawing
 62
   250
420
  1842203
370
   100
100
AcDbVertex
100
AcDb2dVertex
 10
447.6946861353385
 20
-472.9209287276169
 30
0.0
  0
SEQEND
  5
EA
330
E7
100
AcDbEntity
  8
Drawing
 62
   250
420
  1842203
370
   100
  0
POLYLINE
  5
EB
330
DF
100
AcDbEntity
  8
Drawing
 62
   250
420
  1842203
370
   100
100
AcDb2dPolyline
 66
     1
 10
0.0
 20
0.0
 30
0.0
  0
VERTEX
  5
EC
330
EB
100
AcDbEntity
  8
Drawing
 62
   250
420
  1842203
370
   100
100
AcDbVertex
100
AcDb2dVertex
 10
447.6946861353385
 20
-472.9209287276169
 30
0.0
  0
VERTEX
  5
ED
330
EB
100
AcDbEntity
  8
Drawing
 62
   250
420
  1842203
370
   100
100
AcDbVertex
100
AcDb2dVertex
 10
440.6947171868275
 20
-472.9209287276169
 30
0.0
  0
SEQEND
  5
EE
330
EB
100
AcDbEntity
  8
Drawing
 62
   250
420
  1842203
370
   100
  0
POLYLINE
  5
EF
330
DF
100
AcDbEntity
  8
Drawing
 62
   250
420
  1842203
370
   100
100
AcDb2dPolyline
 66
     1
 10
0.0
 20
0.0
 30
0.0
  0
VERTEX
  5
F0
330
EF
100
AcDbEntity
  8
Drawing
 62
   250
420
  1842203
370
   100
100
AcDbVertex
100
AcDb2dVertex
 10
440.6947171868275
 20
-472.9209287276169
 30
0.0
  0
VERTEX
  5
F1
330
EF
100
AcDbEntity
  8
Drawing
 62
   250
420
  1842203
370
   100
100
AcDbVertex
100
AcDb2dVertex
 10
440.6947171868275
 20
-465.920976338964
 30
0.0
  0
SEQEND
  5
F2
330
EF
100
AcDbEntity
  8
Drawing
 62
   250
420
  1842203
370
   100
  0
POLYLINE
  5
F3
330
DF
100
AcDbEntity
  8
Drawing
 62
   250
420
  1842203
370
   100
100
AcDb2dPolyline
 66
     1
 10
0.0
 20
0.0
 30
0.0
  0
VERTEX
  5
F4
330
F3
100
AcDbEntity
  8
Drawing
 62
   250
420
  1842203
370
   100
100
AcDbVertex
100
AcDb2dVertex
 10
584.6944616558369
 20
-609.9207042481137
 30
0.0
  0
VERTEX
  5
F5
330
F3
100
AcDbEntity
  8
Drawing
 62
   250
420
  1842203
370
   100
100
AcDbVertex
100
AcDb2dVertex
 10
591.6944140444879
 20
-609.9207042481137
 30
0.0
  0
SEQEND
  5
F6
330
F3
100
AcDbEntity
  8
Drawing
 62
   250
420
  1842203
370
   100
  0
POLYLINE
  5
F7
330
DF
100
AcDbEntity
  8
Drawing
 62
   250
420
  1842203
370
   100
100
AcDb2dPolyline
 66
     1
 10
0.0
 20
0.0
 30
0.0
  0
VERTEX
  5
F8
330
F7
100
AcDbEntity
  8
Drawing
 62
   250
420
  1842203
370
   100
100
AcDbVertex
100
AcDb2dVertex
 10
591.6944140444879
 20
-609.9207042481137
 30
0.0
  0
VERTEX
  5
F9
330
F7
100
AcDbEntity
  8
Drawing
 62
   250
420
  1842203
370
   100
100
AcDbVertex
100
AcDb2dVertex
 10
591.6944140444879
 20
-616.9206731966253
 30
0.0
  0
SEQEND
  5
FA
330
F7
100
AcDbEntity
  8
Drawing
 62
   250
420
  1842203
370
   100
  0
POLYLINE
  5
FB
330
DF
100
AcDbEntity
  8
Drawing
 62
   250
420
  1842203
370
   100
100
AcDb2dPolyline
 66
     1
 10
0.0
 20
0.0
 30
0.0
  0
VERTEX
  5
FC
330
FB
100
AcDbEntity
  8
Drawing
 62
   250
420
  1842203
370
   100
100
AcDbVertex
100
AcDb2dVertex
 10
591.6944140444879
 20
-616.9206731966253
 30
0.0
  0
VERTEX
  5
FD
330
FB
100
AcDbEntity
  8
Drawing
 62
   250
420
  1842203
370
   100
100
AcDbVertex
100
AcDb2dVertex
 10
584.6944616558369
 20
-616.9206731966253
 30
0.0
  0
SEQEND
  5
FE
330
FB
100
AcDbEntity
  8
Drawing
 62
   250
420
  1842203
370
   100
  0
POLYLINE
  5
FF
330
DF
100
AcDbEntity
  8
Drawing
 62
   250
420
  1842203
370
   100
100
AcDb2dPolyline
 66
     1
 10
0.0
 20
0.0
 30
0.0
  0
VERTEX
  5
100
330
FF
100
AcDbEntity
  8
Drawing
 62
   250
420
  1842203
370
   100
100
AcDbVertex
100
AcDb2dVertex
 10
584.6944616558369
 20
-616.9206731966253
 30
0.0
  0
VERTEX
  5
101
330
FF
100
AcDbEntity
  8
Drawing
 62
   250
420
  1842203
370
   100
100
AcDbVertex
100
AcDb2dVertex
 10
584.6944616558369
 20
-609.9207042481137
 30
0.0
  0
SEQEND
  5
102
330
FF
100
AcDbEntity
  8
Drawing
 62
   250
420
  1842203
370
   100
  0
POLYLINE
  5
103
330
DF
100
AcDbEntity
  8
Drawing
 62
   250
420
  1842203
370
   100
100
AcDb2dPolyline
 66
     1
 10
0.0
 20
0.0
 30
0.0
  0
VERTEX
  5
104
330
103
100
AcDbEntity
  8
Drawing
 62
   250
420
  1842203
370
   100
100
AcDbVertex
100
AcDb2dVertex
 10
458.6949543431866
 20
-465.920976338964
 30
0.0
  0
VERTEX
  5
105
330
103
100
AcDbEntity
  8
Drawing
 62
   250
420
  1842203
370
   100
100
AcDbVertex
100
AcDb2dVertex
 10
465.6949232916979
 20
-465.920976338964
 30
0.0
  0
SEQEND
  5
106
330
103
100
AcDbEntity
  8
Drawing
 62
   250
420
  1842203
370
   100
  0
POLYLINE
  5
107
330
DF
100
AcDbEntity
  8
Drawing
 62
   250
420
  1842203
370
   100
100
AcDb2dPolyline
 66
     1
 10
0.0
 20
0.0
 30
0.0
  0
VERTEX
  5
108
330
107
100
AcDbEntity
  8
Drawing
 62
   250
420
  1842203
370
   100
100
AcDbVertex
100
AcDb2dVertex
 10
465.6949232916979
 20
-465.920976338964
 30
0.0
  0
VERTEX
  5
109
330
107
100
AcDbEntity
  8
Drawing
 62
   250
420
  1842203
370
   100
100
AcDbVertex
100
AcDb2dVertex
 10
465.6949232916979
 20
-472.9209287276169
 30
0.0
  0
SEQEND
  5
10A
330
107
100
AcDbEntity
  8
Drawing
 62
   250
420
  1842203
370
   100
  0
POLYLINE
  5
10B
330
DF
100
AcDbEntity
  8
Drawing
 62
   250
420
  1842203
370
   100
100
AcDb2dPolyline
 66
     1
 10
0.0
 20
0.0
 30
0.0
  0
VERTEX
  5
10C
330
10B
100
AcDbEntity
  8
Drawing
 62
   250
420
  1842203
370
   100
100
AcDbVertex
100
AcDb2dVertex
 10
465.6949232916979
 20
-472.9209287276169
 30
0.0
  0
VERTEX
  5
10D
330
10B
100
AcDbEntity
  8
Drawing
 62
   250
420
  1842203
370
   100
100
AcDbVertex
100
AcDb2dVertex
 10
458.6949543431866
 20
-472.9209287276169
 30
0.0
  0
SEQEND
  5
10E
330
10B
100
AcDbEntity
  8
Drawing
 62
   250
420
  1842203
370
   100
  0
POLYLINE
  5
10F
330
DF
100
AcDbEntity
  8
Drawing
 62
   250
420
  1842203
370
   100
100
AcDb2dPolyline
 66
     1
 10
0.0
 20
0.0
 30
0.0
  0
VERTEX
  5
110
330
10F
100
AcDbEntity
  8
Drawing
 62
   250
420
  1842203
370
   100
100
AcDbVertex
100
AcDb2dVertex
 10
458.6949543431866
 20
-472.9209287276169
 30
0.0
  0
VERTEX
  5
111
330
10F
100
AcDbEntity
  8
Drawing
 62
   250
420
  1842203
370
   100
100
AcDbVertex
100
AcDb2dVertex
 10
458.6949543431866
 20
-465.920976338964
 30
0.0
  0
SEQEND
  5
112
330
10F
100
AcDbEntity
  8
Drawing
 62
   250
420
  1842203
370
   100
  0
POLYLINE
  5
113
330
DF
100
AcDbEntity
  8
Drawing
 62
   250
420
  1842203
370
   100
100
AcDb2dPolyline
 66
     1
 10
0.0
 20
0.0
 30
0.0
  0
VERTEX
  5
114
330
113
100
AcDbEntity
  8
Drawing
 62
   250
420
  1842203
370
   100
100
AcDbVertex
100
AcDb2dVertex
 10
476.6941151086139
 20
-465.920976338964
 30
0.0
  0
VERTEX
  5
115
330
113
100
AcDbEntity
  8
Drawing
 62
   250
420
  1842203
370
   100
100
AcDbVertex
100
AcDb2dVertex
 10
483.6940840571255
 20
-465.920976338964
 30
0.0
  0
SEQEND
  5
116
330
113
100
AcDbEntity
  8
Drawing
 62
   250
420
  1842203
370
   100
  0
POLYLINE
  5
117
330
DF
100
AcDbEntity
  8
Drawing
 62
   250
420
  1842203
370
   100
100
AcDb2dPolyline
 66
     1
 10
0.0
 20
0.0
 30
0.0
  0
VERTEX
  5
118
330
117
100
AcDbEntity
  8
Drawing
 62
   250
420
  1842203
370
   100
100
AcDbVertex
100
AcDb2dVertex
 10
483.6940840571255
 20
-465.920976338964
 30
0.0
  0
VERTEX
  5
119
330
117
100
AcDbEntity
  8
Drawing
 62
   250
420
  1842203
370
   100
100
AcDbVertex
100
AcDb2dVertex
 10
483.6940840571255
 20
-472.9209287276169
 30
0.0
  0
SEQEND
  5
11A
330
117
100
AcDbEntity
  8
Drawing
 62
   250
420
  1842203
370
   100
  0
POLYLINE
  5
11B
330
DF
100
AcDbEntity
  8
Drawing
 62
   250
420
  1842203
370
   100
100
AcDb2dPolyline
 66
     1
 10
0.0
 20
0.0
 30
0.0
  0
VERTEX
  5
11C
330
11B
100
AcDbEntity
  8
Drawing
 62
   250
420
  1842203
370
   100
100
AcDbVertex
100
AcDb2dVertex
 10
483.6940840571255
 20
-472.9209287276169
 30
0.0
  0
VERTEX
  5
11D
330
11B
100
AcDbEntity
  8
Drawing
 62
   250
420
  1842203
370
   100
100
AcDbVertex
100
AcDb2dVertex
 10
476.6941151086139
 20
-472.9209287276169
 30
0.0
  0
SEQEND
  5
11E
330
11B
100
AcDbEntity
  8
Drawing
 62
   250
420
  1842203
370
   100
  0
POLYLINE
  5
11F
330
DF
100
AcDbEntity
  8
Drawing
 62
   250
420
  1842203
370
   100
100
AcDb2dPolyline
 66
     1
 10
0.0
 20
0.0
 30
0.0
  0
VERTEX
  5
120
330
11F
100
AcDbEntity
  8
Drawing
 62
   250
420
  1842203
370
   100
100
AcDbVertex
100
AcDb2dVertex
 10
476.6941151086139
 20
-472.9209287276169
 30
0.0
  0
VERTEX
  5
121
330
11F
100
AcDbEntity
  8
Drawing
 62
   250
420
  1842203
370
   100
100
AcDbVertex
100
AcDb2dVertex
 10
476.6941151086139
 20
-465.920976338964
 30
0.0
  0
SEQEND
  5
122
330
11F
100
AcDbEntity
  8
Drawing
 62
   250
420
  1842203
370
   100
  0
POLYLINE
  5
123
330
DF
100
AcDbEntity
  8
Drawing
 62
   250
420
  1842203
370
   100
100
AcDb2dPolyline
 66
     1
 10
0.0
 20
0.0
 30
0.0
  0
VERTEX
  5
124
330
123
100
AcDbEntity
  8
Drawing
 62
   250
420
  1842203
370
   100
100
AcDbVertex
100
AcDb2dVertex
 10
494.694352264973
 20
-465.920976338964
 30
0.0
  0
VERTEX
  5
125
330
123
100
AcDbEntity
  8
Drawing
 62
   250
420
  1842203
370
   100
100
AcDbVertex
100
AcDb2dVertex
 10
501.6943212134847
 20
-465.920976338964
 30
0.0
  0
SEQEND
  5
126
330
123
100
AcDbEntity
  8
Drawing
 62
   250
420
  1842203
370
   100
  0
POLYLINE
  5
127
330
DF
100
AcDbEntity
  8
Drawing
 62
   250
420
  1842203
370
   100
100
AcDb2dPolyline
 66
     1
 10
0.0
 20
0.0
 30
0.0
  0
VERTEX
  5
128
330
127
100
AcDbEntity
  8
Drawing
 62
   250
420
  1842203
370
   100
100
AcDbVertex
100
AcDb2dVertex
 10
501.6943212134847
 20
-465.920976338964
 30
0.0
  0
VERTEX
  5
129
330
127
100
AcDbEntity
  8
Drawing
 62
   250
420
  1842203
370
   100
100
AcDbVertex
100
AcDb2dVertex
 10
501.6943212134847
 20
-472.9209287276169
 30
0.0
  0
SEQEND
  5
12A
330
127
100
AcDbEntity
  8
Drawing
 62
   250
420
  1842203
370
   100
  0
POLYLINE
  5
12B
330
DF
100
AcDbEntity
  8
Drawing
 62
   250
420
  1842203
370
   100
100
AcDb2dPolyline
 66
     1
 10
0.0
 20
0.0
 30
0.0
  0
VERTEX
  5
12C
330
12B
100
AcDbEntity
  8
Drawing
 62
   250
420
  1842203
370
   100
100
AcDbVertex
100
AcDb2dVertex
 10
501.6943212134847
 20
-472.9209287276169
 30
0.0
  0
VERTEX
  5
12D
330
12B
100
AcDbEntity
  8
Drawing
 62
   250
420
  1842203
370
   100
100
AcDbVertex
100
AcDb2dVertex
 10
494.694352264973
 20
-472.9209287276169
 30
0.0
  0
SEQEND
  5
12E
330
12B
100
AcDbEntity
  8
Drawing
 62
   250
420
  1842203
370
   100
  0
POLYLINE
  5
12F
330
DF
100
AcDbEntity
  8
Drawing
 62
   250
420
  1842203
370
   100
100
AcDb2dPolyline
 66
     1
 10
0.0
 20
0.0
 30
0.0
  0
VERTEX
  5
130
330
12F
100
AcDbEntity
  8
Drawing
 62
   250
420
  1842203
370
   100
100
AcDbVertex
100
AcDb2dVertex
 10
494.694352264973
 20
-472.9209287276169
 30
0.0
  0
VERTEX
  5
131
330
12F
100
AcDbEntity
  8
Drawing
 62
   250
420
  1842203
370
   100
100
AcDbVertex
100
AcDb2dVertex
 10
494.694352264973
 20
-465.920976338964
 30
0.0
  0
SEQEND
  5
132
330
12F
100
AcDbEntity
  8
Drawing
 62
   250
420
  1842203
370
   100
  0
POLYLINE
  5
133
330
DF
100
AcDbEntity
  8
Drawing
 62
   250
420
  1842203
370
   100
100
AcDb2dPolyline
 66
     1
 10
0.0
 20
0.0
 30
0.0
  0
VERTEX
  5
134
330
133
100
AcDbEntity
  8
Drawing
 62
   250
420
  1842203
370
   100
100
AcDbVertex
100
AcDb2dVertex
 10
512.6945894213319
 20
-465.920976338964
 30
0.0
  0
VERTEX
  5
135
330
133
100
AcDbEntity
  8
Drawing
 62
   250
420
  1842203
370
   100
100
AcDbVertex
100
AcDb2dVertex
 10
519.6945583698435
 20
-465.920976338964
 30
0.0
  0
SEQEND
  5
136
330
133
100
AcDbEntity
  8
Drawing
 62
   250
420
  1842203
370
   100
  0
POLYLINE
  5
137
330
DF
100
AcDbEntity
  8
Drawing
 62
   250
420
  1842203
370
   100
100
AcDb2dPolyline
 66
     1
 10
0.0
 20
0.0
 30
0.0
  0
VERTEX
  5
138
330
137
100
AcDbEntity
  8
Drawing
 62
   250
420
  1842203
370
   100
100
AcDbVertex
100
AcDb2dVertex
 10
519.6945583698435
 20
-465.920976338964
 30
0.0
  0
VERTEX
  5
139
330
137
100
AcDbEntity
  8
Drawing
 62
   250
420
  1842203
370
   100
100
AcDbVertex
100
AcDb2dVertex
 10
519.6945583698435
 20
-472.9209287276169
 30
0.0
  0
SEQEND
  5
13A
330
137
100
AcDbEntity
  8
Drawing
 62
   250
420
  1842203
370
   100
  0
POLYLINE
  5
13B
330
DF
100
AcDbEntity
  8
Drawing
 62
   250
420
  1842203
370
   100
100
AcDb2dPolyline
 66
     1
 10
0.0
 20
0.0
 30
0.0
  0
VERTEX
  5
13C
330
13B
100
AcDbEntity
  8
Drawing
 62
   250
420
  1842203
370
   100
100
AcDbVertex
100
AcDb2dVertex
 10
519.6945583698435
 20
-472.9209287276169
 30
0.0
  0
VERTEX
  5
13D
330
13B
100
AcDbEntity
  8
Drawing
 62
   250
420
  1842203
370
   100
100
AcDbVertex
100
AcDb2dVertex
 10
512.6945894213319
 20
-472.9209287276169
 30
0.0
  0
SEQEND
  5
13E
330
13B
100
AcDbEntity
  8
Drawing
 62
   250
420
  1842203
370
   100
  0
POLYLINE
  5
13F
330
DF
100
AcDbEntity
  8
Drawing
 62
   250
420
  1842203
370
   100
100
AcDb2dPolyline
 66
     1
 10
0.0
 20
0.0
 30
0.0
  0
VERTEX
  5
140
330
13F
100
AcDbEntity
  8
Drawing
 62
   250
420
  1842203
370
   100
100
AcDbVertex
100
AcDb2dVertex
 10
512.6945894213319
 20
-472.9209287276169
 30
0.0
  0
VERTEX
  5
141
330
13F
100
AcDbEntity
  8
Drawing
 62
   250
420
  1842203
370
   100
100
AcDbVertex
100
AcDb2dVertex
 10
512.6945894213319
 20
-465.920976338964
 30
0.0
  0
SEQEND
  5
142
330
13F
100
AcDbEntity
  8
Drawing
 62
   250
420
  1842203
370
   100
  0
POLYLINE
  5
143
330
DF
100
AcDbEntity
  8
Drawing
 62
   250
420
  1842203
370
   100
100
AcDb2dPolyline
 66
     1
 10
0.0
 20
0.0
 30
0.0
  0
VERTEX
  5
144
330
143
100
AcDbEntity
  8
Drawing
 62
   250
420
  1842203
370
   100
100
AcDbVertex
100
AcDb2dVertex
 10
530.6948265776913
 20
-465.920976338964
 30
0.0
  0
VERTEX
  5
145
330
143
100
AcDbEntity
  8
Drawing
 62
   250
420
  1842203
370
   100
100
AcDbVertex
100
AcDb2dVertex
 10
537.6947955262029
 20
-465.920976338964
 30
0.0
  0
SEQEND
  5
146
330
143
100
AcDbEntity
  8
Drawing
 62
   250
420
  1842203
370
   100
  0
POLYLINE
  5
147
330
DF
100
AcDbEntity
  8
Drawing
 62
   250
420
  1842203
370
   100
100
AcDb2dPolyline
 66
     1
 10
0.0
 20
0.0
 30
0.0
  0
VERTEX
  5
148
330
147
100
AcDbEntity
  8
Drawing
 62
   250
420
  1842203
370
   100
100
AcDbVertex
100
AcDb2dVertex
 10
537.6947955262029
 20
-465.920976338964
 30
0.0
  0
VERTEX
  5
149
330
147
100
AcDbEntity
  8
Drawing
 62
   250
420
  1842203
370
   100
100
AcDbVertex
100
AcDb2dVertex
 10
537.6947955262029
 20
-472.9209287276169
 30
0.0
  0
SEQEND
  5
14A
330
147
100
AcDbEntity
  8
Drawing
 62
   250
420
  1842203
370
   100
  0
POLYLINE
  5
14B
330
DF
100
AcDbEntity
  8
Drawing
 62
   250
420
  1842203
370
   100
100
AcDb2dPolyline
 66
     1
 10
0.0
 20
0.0
 30
0.0
  0
VERTEX
  5
14C
330
14B
100
AcDbEntity
  8
Drawing
 62
   250
420
  1842203
370
   100
100
AcDbVertex
100
AcDb2dVertex
 10
537.6947955262029
 20
-472.9209287276169
 30
0.0
  0
VERTEX
  5
14D
330
14B
100
AcDbEntity
  8
Drawing
 62
   250
420
  1842203
370
   100
100
AcDbVertex
100
AcDb2dVertex
 10
530.6948265776913
 20
-472.9209287276169
 30
0.0
  0
SEQEND
  5
14E
330
14B
100
AcDbEntity
  8
Drawing
 62
   250
420
  1842203
370
   100
  0
POLYLINE
  5
14F
330
DF
100
AcDbEntity
  8
Drawing
 62
   250
420
  1842203
370
   100
100
AcDb2dPolyline
 66
     1
 10
0.0
 20
0.0
 30
0.0
  0
VERTEX
  5
150
330
14F
100
AcDbEntity
  8
Drawing
 62
   250
420
  1842203
370
   100
100
AcDbVertex
100
AcDb2dVertex
 10
530.6948265776913
 20
-472.9209287276169
 30
0.0
  0
VERTEX
  5
151
330
14F
100
AcDbEntity
  8
Drawing
 62
   250
420
  1842203
370
   100
100
AcDbVertex
100
AcDb2dVertex
 10
530.6948265776913
 20
-465.920976338964
 30
0.0
  0
SEQEND
  5
152
330
14F
100
AcDbEntity
  8
Drawing
 62
   250
420
  1842203
370
   100
  0
POLYLINE
  5
153
330
DF
100
AcDbEntity
  8
Drawing
 62
   250
420
  1842203
370
   100
100
AcDb2dPolyline
 66
     1
 10
0.0
 20
0.0
 30
0.0
  0
VERTEX
  5
154
330
153
100
AcDbEntity
  8
Drawing
 62
   250
420
  1842203
370
   100
100
AcDbVertex
100
AcDb2dVertex
 10
548.693970783258
 20
-465.920976338964
 30
0.0
  0
VERTEX
  5
155
330
153
100
AcDbEntity
  8
Drawing
 62
   250
420
  1842203
370
   100
100
AcDbVertex
100
AcDb2dVertex
 10
555.6939562916302
 20
-465.920976338964
 30
0.0
  0
SEQEND
  5
156
330
153
100
AcDbEntity
  8
Drawing
 62
   250
420
  1842203
370
   100
  0
POLYLINE
  5
157
330
DF
100
AcDbEntity
  8
Drawing
 62
   250
420
  1842203
370
   100
100
AcDb2dPolyline
 66
     1
 10
0.0
 20
0.0
 30
0.0
  0
VERTEX
  5
158
330
157
100
AcDbEntity
  8
Drawing
 62
   250
420
  1842203
370
   100
100
AcDbVertex
100
AcDb2dVertex
 10
555.6939562916302
 20
-465.920976338964
 30
0.0
  0
VERTEX
  5
159
330
157
100
AcDbEntity
  8
Drawing
 62
   250
420
  1842203
370
   100
100
AcDbVertex
100
AcDb2dVertex
 10
555.6939562916302
 20
-472.9209287276169
 30
0.0
  0
SEQEND
  5
15A
330
157
100
AcDbEntity
  8
Drawing
 62
   250
420
  1842203
370
   100
  0
POLYLINE
  5
15B
330
DF
100
AcDbEntity
  8
Drawing
 62
   250
420
  1842203
370
   100
100
AcDb2dPolyline
 66
     1
 10
0.0
 20
0.0
 30
0.0
  0
VERTEX
  5
15C
330
15B
100
AcDbEntity
  8
Drawing
 62
   250
420
  1842203
370
   100
100
AcDbVertex
100
AcDb2dVertex
 10
555.6939562916302
 20
-472.9209287276169
 30
0.0
  0
VERTEX
  5
15D
330
15B
100
AcDbEntity
  8
Drawing
 62
   250
420
  1842203
370
   100
100
AcDbVertex
100
AcDb2dVertex
 10
548.693970783258
 20
-472.9209287276169
 30
0.0
  0
SEQEND
  5
15E
330
15B
100
AcDbEntity
  8
Drawing
 62
   250
420
  1842203
370
   100
  0
POLYLINE
  5
15F
330
DF
100
AcDbEntity
  8
Drawing
 62
   250
420
  1842203
370
   100
100
AcDb2dPolyline
 66
     1
 10
0.0
 20
0.0
 30
0.0
  0
VERTEX
  5
160
330
15F
100
AcDbEntity
  8
Drawing
 62
   250
420
  1842203
370
   100
100
AcDbVertex
100
AcDb2dVertex
 10
548.693970783258
 20
-472.9209287276169
 30
0.0
  0
VERTEX
  5
161
330
15F
100
AcDbEntity
  8
Drawing
 62
   250
420
  1842203
370
   100
100
AcDbVertex
100
AcDb2dVertex
 10
548.693970783258
 20
-465.920976338964
 30
0.0
  0
SEQEND
  5
162
330
15F
100
AcDbEntity
  8
Drawing
 62
   250
420
  1842203
370
   100
  0
POLYLINE
  5
163
330
DF
100
AcDbEntity
  8
Drawing
 62
   250
420
  1842203
370
   100
100
AcDb2dPolyline
 66
     1
 10
0.0
 20
0.0
 30
0.0
  0
VERTEX
  5
164
330
163
100
AcDbEntity
  8
Drawing
 62
   250
420
  1842203
370
   100
100
AcDbVertex
100
AcDb2dVertex
 10
566.6942244994774
 20
-465.920976338964
 30
0.0
  0
VERTEX
  5
165
330
163
100
AcDbEntity
  8
Drawing
 62
   250
420
  1842203
370
   100
100
AcDbVertex
100
AcDb2dVertex
 10
573.694193447989
 20
-465.920976338964
 30
0.0
  0
SEQEND
  5
166
330
163
100
AcDbEntity
  8
Drawing
 62
   250
420
  1842203
370
   100
  0
POLYLINE
  5
167
330
DF
100
AcDbEntity
  8
Drawing
 62
   250
420
  1842203
370
   100
100
AcDb2dPolyline
 66
     1
 10
0.0
 20
0.0
 30
0.0
  0
VERTEX
  5
168
330
167
100
AcDbEntity
  8
Drawing
 62
   250
420
  1842203
370
   100
100
AcDbVertex
100
AcDb2dVertex
 10
573.694193447989
 20
-465.920976338964
 30
0.0
  0
VERTEX
  5
169
330
167
100
AcDbEntity
  8
Drawing
 62
   250
420
  1842203
370
   100
100
AcDbVertex
100
AcDb2dVertex
 10
573.694193447989
 20
-472.9209287276169
 30
0.0
  0
SEQEND
  5
16A
330
167
100
AcDbEntity
  8
Drawing
 62
   250
420
  1842203
370
   100
  0
POLYLINE
  5
16B
330
DF
100
AcDbEntity
  8
Drawing
 62
   250
420
  1842203
370
   100
100
AcDb2dPolyline
 66
     1
 10
0.0
 20
0.0
 30
0.0
  0
VERTEX
  5
16C
330
16B
100
AcDbEntity
  8
Drawing
 62
   250
420
  1842203
370
   100
100
AcDbVertex
100
AcDb2dVertex
 10
573.694193447989
 20
-472.9209287276169
 30
0.0
  0
VERTEX
  5
16D
330
16B
100
AcDbEntity
  8
Drawing
 62
   250
420
  1842203
370
   100
100
AcDbVertex
100
AcDb2dVertex
 10
566.6942244994774
 20
-472.9209287276169
 30
0.0
  0
SEQEND
  5
16E
330
16B
100
AcDbEntity
  8
Drawing
 62
   250
420
  1842203
370
   100
  0
POLYLINE
  5
16F
330
DF
100
AcDbEntity
  8
Drawing
 62
   250
420
  1842203
370
   100
100
AcDb2dPolyline
 66
     1
 10
0.0
 20
0.0
 30
0.0
  0
VERTEX
  5
170
330
16F
100
AcDbEntity
  8
Drawing
 62
   250
420
  1842203
370
   100
100
AcDbVertex
100
AcDb2dVertex
 10
566.6942244994774
 20
-472.9209287276169
 30
0.0
  0
VERTEX
  5
171
330
16F
100
AcDbEntity
  8
Drawing
 62
   250
420
  1842203
370
   100
100
AcDbVertex
100
AcDb2dVertex
 10
566.6942244994774
 20
-465.920976338964
 30
0.0
  0
SEQEND
  5
172
330
16F
100
AcDbEntity
  8
Drawing
 62
   250
420
  1842203
370
   100
  0
POLYLINE
  5
173
330
DF
100
AcDbEntity
  8
Drawing
 62
   250
420
  1842203
370
   100
100
AcDb2dPolyline
 66
     1
 10
0.0
 20
0.0
 30
0.0
  0
VERTEX
  5
174
330
173
100
AcDbEntity
  8
Drawing
 62
   250
420
  1842203
370
   100
100
AcDbVertex
100
AcDb2dVertex
 10
584.6944616558369
 20
-465.920976338964
 30
0.0
  0
VERTEX
  5
175
330
173
100
AcDbEntity
  8
Drawing
 62
   250
420
  1842203
370
   100
100
AcDbVertex
100
AcDb2dVertex
 10
591.6944140444879
 20
-465.920976338964
 30
0.0
  0
SEQEND
  5
176
330
173
100
AcDbEntity
  8
Drawing
 62
   250
420
  1842203
370
   100
  0
POLYLINE
  5
177
330
DF
100
AcDbEntity
  8
Drawing
 62
   250
420
  1842203
370
   100
100
AcDb2dPolyline
 66
     1
 10
0.0
 20
0.0
 30
0.0
  0
VERTEX
  5
178
330
177
100
AcDbEntity
  8
Drawing
 62
   250
420
  1842203
370
   100
100
AcDbVertex
100
AcDb2dVertex
 10
591.6944140444879
 20
-465.920976338964
 30
0.0
  0
VERTEX
  5
179
330
177
100
AcDbEntity
  8
Drawing
 62
   250
420
  1842203
370
   100
100
AcDbVertex
100
AcDb2dVertex
 10
591.6944140444879
 20
-472.9209287276169
 30
0.0
  0
SEQEND
  5
17A
330
177
100
AcDbEntity
  8
Drawing
 62
   250
420
  1842203
370
   100
  0
POLYLINE
  5
17B
330
DF
100
AcDbEntity
  8
Drawing
 62
   250
420
  1842203
370
   100
100
AcDb2dPolyline
 66
     1
 10
0.0
 20
0.0
 30
0.0
  0
VERTEX
  5
17C
330
17B
100
AcDbEntity
  8
Drawing
 62
   250
420
  1842203
370
   100
100
AcDbVertex
100
AcDb2dVertex
 10
591.6944140444879
 20
-472.9209287276169
 30
0.0
  0
VERTEX
  5
17D
330
17B
100
AcDbEntity
  8
Drawing
 62
   250
420
  1842203
370
   100
100
AcDbVertex
100
AcDb2dVertex
 10
584.6944616558369
 20
-472.9209287276169
 30
0.0
  0
SEQEND
  5
17E
330
17B
100
AcDbEntity
  8
Drawing
 62
   250
420
  1842203
370
   100
  0
POLYLINE
  5
17F
330
DF
100
AcDbEntity
  8
Drawing
 62
   250
420
  1842203
370
   100
100
AcDb2dPolyline
 66
     1
 10
0.0
 20
0.0
 30
0.0
  0
VERTEX
  5
180
330
17F
100
AcDbEntity
  8
Drawing
 62
   250
420
  1842203
370
   100
100
AcDbVertex
100
AcDb2dVertex
 10
584.6944616558369
 20
-472.9209287276169
 30
0.0
  0
VERTEX
  5
181
330
17F
100
AcDbEntity
  8
Drawing
 62
   250
420
  1842203
370
   100
100
AcDbVertex
100
AcDb2dVertex
 10
584.6944616558369
 20
-465.920976338964
 30
0.0
  0
SEQEND
  5
182
330
17F
100
AcDbEntity
  8
Drawing
 62
   250
420
  1842203
370
   100
  0
POLYLINE
  5
183
330
DF
100
AcDbEntity
  8
Drawing
 62
   250
420
  1842203
370
   100
100
AcDb2dPolyline
 66
     1
 10
0.0
 20
0.0
 30
0.0
  0
VERTEX
  5
184
330
183
100
AcDbEntity
  8
Drawing
 62
   250
420
  1842203
370
   100
100
AcDbVertex
100
AcDb2dVertex
 10
440.6947171868275
 20
-483.9212134953247
 30
0.0
  0
VERTEX
  5
185
330
183
100
AcDbEntity
  8
Drawing
 62
   250
420
  1842203
370
   100
100
AcDbVertex
100
AcDb2dVertex
 10
447.6946861353385
 20
-483.9212134953247
 30
0.0
  0
SEQEND
  5
186
330
183
100
AcDbEntity
  8
Drawing
 62
   250
420
  1842203
370
   100
  0
POLYLINE
  5
187
330
DF
100
AcDbEntity
  8
Drawing
 62
   250
420
  1842203
370
   100
100
AcDb2dPolyline
 66
     1
 10
0.0
 20
0.0
 30
0.0
  0
VERTEX
  5
188
330
187
100
AcDbEntity
  8
Drawing
 62
   250
420
  1842203
370
   100
100
AcDbVertex
100
AcDb2dVertex
 10
447.6946861353385
 20
-483.9212134953247
 30
0.0
  0
VERTEX
  5
189
330
187
100
AcDbEntity
  8
Drawing
 62
   250
420
  1842203
370
   100
100
AcDbVertex
100
AcDb2dVertex
 10
447.6946861353385
 20
-490.9211990036969
 30
0.0
  0
SEQEND
  5
18A
330
187
100
AcDbEntity
  8
Drawing
 62
   250
420
  1842203
370
   100
  0
POLYLINE
  5
18B
330
DF
100
AcDbEntity
  8
Drawing
 62
   250
420
  1842203
370
   100
100
AcDb2dPolyline
 66
     1
 10
0.0
 20
0.0
 30
0.0
  0
VERTEX
  5
18C
330
18B
100
AcDbEntity
  8
Drawing
 62
   250
420
  1842203
370
   100
100
AcDbVertex
100
AcDb2dVertex
 10
447.6946861353385
 20
-490.9211990036969
 30
0.0
  0
VERTEX
  5
18D
330
18B
100
AcDbEntity
  8
Drawing
 62
   250
420
  1842203
370
   100
100
AcDbVertex
100
AcDb2dVertex
 10
440.6947171868275
 20
-490.9211990036969
 30
0.0
  0
SEQEND
  5
18E
330
18B
100
AcDbEntity
  8
Drawing
 62
   250
420
  1842203
370
   100
  0
POLYLINE
  5
18F
330
DF
100
AcDbEntity
  8
Drawing
 62
   250
420
  1842203
370
   100
100
AcDb2dPolyline
 66
     1
 10
0.0
 20
0.0
 30
0.0
  0
VERTEX
  5
190
330
18F
100
AcDbEntity
  8
Drawing
 62
   250
420
  1842203
370
   100
100
AcDbVertex
100
AcDb2dVertex
 10
440.6947171868275
 20
-490.9211990036969
 30
0.0
  0
VERTEX
  5
191
330
18F
100
AcDbEntity
  8
Drawing
 62
   250
420
  1842203
370
   100
100
AcDbVertex
100
AcDb2dVertex
 10
440.6947171868275
 20
-483.9212134953247
 30
0.0
  0
SEQEND
  5
192
330
18F
100
AcDbEntity
  8
Drawing
 62
   250
420
  1842203
370
   100
  0
POLYLINE
  5
193
330
DF
100
AcDbEntity
  8
Drawing
 62
   250
420
  1842203
370
   100
100
AcDb2dPolyline
 66
     1
 10
0.0
 20
0.0
 30
0.0
  0
VERTEX
  5
194
330
193
100
AcDbEntity
  8
Drawing
 62
   250
420
  1842203
370
   100
100
AcDbVertex
100
AcDb2dVertex
 10
458.6949543431866
 20
-483.9212134953247
 30
0.0
  0
VERTEX
  5
195
330
193
100
AcDbEntity
  8
Drawing
 62
   250
420
  1842203
370
   100
100
AcDbVertex
100
AcDb2dVertex
 10
465.6949232916979
 20
-483.9212134953247
 30
0.0
  0
SEQEND
  5
196
330
193
100
AcDbEntity
  8
Drawing
 62
   250
420
  1842203
370
   100
  0
POLYLINE
  5
197
330
DF
100
AcDbEntity
  8
Drawing
 62
   250
420
  1842203
370
   100
100
AcDb2dPolyline
 66
     1
 10
0.0
 20
0.0
 30
0.0
  0
VERTEX
  5
198
330
197
100
AcDbEntity
  8
Drawing
 62
   250
420
  1842203
370
   100
100
AcDbVertex
100
AcDb2dVertex
 10
465.6949232916979
 20
-483.9212134953247
 30
0.0
  0
VERTEX
  5
199
330
197
100
AcDbEntity
  8
Drawing
 62
   250
420
  1842203
370
   100
100
AcDbVertex
100
AcDb2dVertex
 10
465.6949232916979
 20
-490.9211990036969
 30
0.0
  0
SEQEND
  5
19A
330
197
100
AcDbEntity
  8
Drawing
 62
   250
420
  1842203
370
   100
  0
POLYLINE
  5
19B
330
DF
100
AcDbEntity
  8
Drawing
 62
   250
420
  1842203
370
   100
100
AcDb2dPolyline
 66
     1
 10
0.0
 20
0.0
 30
0.0
  0
VERTEX
  5
19C
330
19B
100
AcDbEntity
  8
Drawing
 62
   250
420
  1842203
370
   100
100
AcDbVertex
100
AcDb2dVertex
 10
465.6949232916979
 20
-490.9211990036969
 30
0.0
  0
VERTEX
  5
19D
330
19B
100
AcDbEntity
  8
Drawing
 62
   250
420
  1842203
370
   100
100
AcDbVertex
100
AcDb2dVertex
 10
458.6949543431866
 20
-490.9211990036969
 30
0.0
  0
SEQEND
  5
19E
330
19B
100
AcDbEntity
  8
Drawing
 62
   250
420
  1842203
370
   100
  0
POLYLINE
  5
19F
330
DF
100
AcDbEntity
  8
Drawing
 62
   250
420
  1842203
370
   100
100
AcDb2dPolyline
 66
     1
 10
0.0
 20
0.0
 30
0.0
  0
VERTEX
  5
1A0
330
19F
100
AcDbEntity
  8
Drawing
 62
   250
420
  1842203
370
   100
100
AcDbVertex
100
AcDb2dVertex
 10
458.6949543431866
 20
-490.9211990036969
 30
0.0
  0
VERTEX
  5
1A1
330
19F
100
AcDbEntity
  8
Drawing
 62
   250
420
  1842203
370
   100
100
AcDbVertex
100
AcDb2dVertex
 10
458.6949543431866
 20
-483.9212134953247
 30
0.0
  0
SEQEND
  5
1A2
330
19F
100
AcDbEntity
  8
Drawing
 62
   250
420
  1842203
370
   100
  0
POLYLINE
  5
1A3
330
DF
100
AcDbEntity
  8
Drawing
 62
   250
420
  1842203
370
   100
100
AcDb2dPolyline
 66
     1
 10
0.0
 20
0.0
 30
0.0
  0
VERTEX
  5
1A4
330
1A3
100
AcDbEntity
  8
Drawing
 62
   250
420
  1842203
370
   100
100
AcDbVertex
100
AcDb2dVertex
 10
476.6941151086139
 20
-483.9212134953247
 30
0.0
  0
VERTEX
  5
1A5
330
1A3
100
AcDbEntity
  8
Drawing
 62
   250
420
  1842203
370
   100
100
AcDbVertex
100
AcDb2dVertex
 10
483.6940840571255
 20
-483.9212134953247
 30
0.0
  0
SEQEND
  5
1A6
330
1A3
100
AcDbEntity
  8
Drawing
 62
   250
420
  1842203
370
   100
  0
POLYLINE
  5
1A7
330
DF
100
AcDbEntity
  8
Drawing
 62
   250
420
  1842203
370
   100
100
AcDb2dPolyline
 66
     1
 10
0.0
 20
0.0
 30
0.0
  0
VERTEX
  5
1A8
330
1A7
100
AcDbEntity
  8
Drawing
 62
   250
420
  1842203
370
   100
100
AcDbVertex
100
AcDb2dVertex
 10
483.6940840571255
 20
-483.9212134953247
 30
0.0
  0
VERTEX
  5
1A9
330
1A7
100
AcDbEntity
  8
Drawing
 62
   250
420
  1842203
370
   100
100
AcDbVertex
100
AcDb2dVertex
 10
483.6940840571255
 20
-490.9211990036969
 30
0.0
  0
SEQEND
  5
1AA
330
1A7
100
AcDbEntity
  8
Drawing
 62
   250
420
  1842203
370
   100
  0
POLYLINE
  5
1AB
330
DF
100
AcDbEntity
  8
Drawing
 62
   250
420
  1842203
370
   100
100
AcDb2dPolyline
 66
     1
 10
0.0
 20
0.0
 30
0.0
  0
VERTEX
  5
1AC
330
1AB
100
AcDbEntity
  8
Drawing
 62
   250
420
  1842203
370
   100
100
AcDbVertex
100
AcDb2dVertex
 10
483.6940840571255
 20
-490.9211990036969
 30
0.0
  0
VERTEX
  5
1AD
330
1AB
100
AcDbEntity
  8
Drawing
 62
   250
420
  1842203
370
   100
100
AcDbVertex
100
AcDb2dVertex
 10
476.6941151086139
 20
-490.9211990036969
 30
0.0
  0
SEQEND
  5
1AE
330
1AB
100
AcDbEntity
  8
Drawing
 62
   250
420
  1842203
370
   100
  0
POLYLINE
  5
1AF
330
DF
100
AcDbEntity
  8
Drawing
 62
   250
420
  1842203
370
   100
100
AcDb2dPolyline
 66
     1
 10
0.0
 20
0.0
 30
0.0
  0
VERTEX
  5
1B0
330
1AF
100
AcDbEntity
  8
Drawing
 62
   250
420
  1842203
370
   100
100
AcDbVertex
100
AcDb2dVertex
 10
476.6941151086139
 20
-490.9211990036969
 30
0.0
  0
VERTEX
  5
1B1
330
1AF
100
AcDbEntity
  8
Drawing
 62
   250
420
  1842203
370
   100
100
AcDbVertex
100
AcDb2dVertex
 10
476.6941151086139
 20
-483.9212134953247
 30
0.0
  0
SEQEND
  5
1B2
330
1AF
100
AcDbEntity
  8
Drawing
 62
   250
420
  1842203
370
   100
  0
POLYLINE
  5
1B3
330
DF
100
AcDbEntity
  8
Drawing
 62
   250
420
  1842203
370
   100
100
AcDb2dPolyline
 66
     1
 10
0.0
 20
0.0
 30
0.0
  0
VERTEX
  5
1B4
330
1B3
100
AcDbEntity
  8
Drawing
 62
   250
420
  1842203
370
   100
100
AcDbVertex
100
AcDb2dVertex
 10
494.694352264973
 20
-483.9212134953247
 30
0.0
  0
VERTEX
  5
1B5
330
1B3
100
AcDbEntity
  8
Drawing
 62
   250
420
  1842203
370
   100
100
AcDbVertex
100
AcDb2dVertex
 10
501.6943212134847
 20
-483.9212134953247
 30
0.0
  0
SEQEND
  5
1B6
330
1B3
100
AcDbEntity
  8
Drawing
 62
   250
420
  1842203
370
   100
  0
POLYLINE
  5
1B7
330
DF
100
AcDbEntity
  8
Drawing
 62
   250
420
  1842203
370
   100
100
AcDb2dPolyline
 66
     1
 10
0.0
 20
0.0
 30
0.0
  0
VERTEX
  5
1B8
330
1B7
100
AcDbEntity
  8
Drawing
 62
   250
420
  1842203
370
   100
100
AcDbVertex
100
AcDb2dVertex
 10
501.6943212134847
 20
-483.9212134953247
 30
0.0
  0
VERTEX
  5
1B9
330
1B7
100
AcDbEntity
  8
Drawing
 62
   250
420
  1842203
370
   100
100
AcDbVertex
100
AcDb2dVertex
 10
501.6943212134847
 20
-490.9211990036969
 30
0.0
  0
SEQEND
  5
1BA
330
1B7
100
AcDbEntity
  8
Drawing
 62
   250
420
  1842203
370
   100
  0
POLYLINE
  5
1BB
330
DF
100
AcDbEntity
  8
Drawing
 62
   250
420
  1842203
370
   100
100
AcDb2dPolyline
 66
     1
 10
0.0
 20
0.0
 30
0.0
  0
VERTEX
  5
1BC
330
1BB
100
AcDbEntity
  8
Drawing
 62
   250
420
  1842203
370
   100
100
AcDbVertex
100
AcDb2dVertex
 10
501.6943212134847
 20
-490.9211990036969
 30
0.0
  0
VERTEX
  5
1BD
330
1BB
100
AcDbEntity
  8
Drawing
 62
   250
420
  1842203
370
   100
100
AcDbVertex
100
AcDb2dVertex
 10
494.694352264973
 20
-490.9211990036969
 30
0.0
  0
SEQEND
  5
1BE
330
1BB
100
AcDbEntity
  8
Drawing
 62
   250
420
  1842203
370
   100
  0
POLYLINE
  5
1BF
330
DF
100
AcDbEntity
  8
Drawing
 62
   250
420
  1842203
370
   100
100
AcDb2dPolyline
 66
     1
 10
0.0
 20
0.0
 30
0.0
  0
VERTEX
  5
1C0
330
1BF
100
AcDbEntity
  8
Drawing
 62
   250
420
  1842203
370
   100
100
AcDbVertex
100
AcDb2dVertex
 10
494.694352264973
 20
-490.9211990036969
 30
0.0
  0
VERTEX
  5
1C1
330
1BF
100
AcDbEntity
  8
Drawing
 62
   250
420
  1842203
370
   100
100
AcDbVertex
100
AcDb2dVertex
 10
494.694352264973
 20
-483.9212134953247
 30
0.0
  0
SEQEND
  5
1C2
330
1BF
100
AcDbEntity
  8
Drawing
 62
   250
420
  1842203
370
   100
  0
POLYLINE
  5
1C3
330
DF
100
AcDbEntity
  8
Drawing
 62
   250
420
  1842203
370
   100
100
AcDb2dPolyline
 66
     1
 10
0.0
 20
0.0
 30
0.0
  0
VERTEX
  5
1C4
330
1C3
100
AcDbEntity
  8
Drawing
 62
   250
420
  1842203
370
   100
100
AcDbVertex
100
AcDb2dVertex
 10
512.6945894213319
 20
-483.9212134953247
 30
0.0
  0
VERTEX
  5
1C5
330
1C3
100
AcDbEntity
  8
Drawing
 62
   250
420
  1842203
370
   100
100
AcDbVertex
100
AcDb2dVertex
 10
519.6945583698435
 20
-483.9212134953247
 30
0.0
  0
SEQEND
  5
1C6
330
1C3
100
AcDbEntity
  8
Drawing
 62
   250
420
  1842203
370
   100
  0
POLYLINE
  5
1C7
330
DF
100
AcDbEntity
  8
Drawing
 62
   250
420
  1842203
370
   100
100
AcDb2dPolyline
 66
     1
 10
0.0
 20
0.0
 30
0.0
  0
VERTEX
  5
1C8
330
1C7
100
AcDbEntity
  8
Drawing
 62
   250
420
  1842203
370
   100
100
AcDbVertex
100
AcDb2dVertex
 10
519.6945583698435
 20
-483.9212134953247
 30
0.0
  0
VERTEX
  5
1C9
330
1C7
100
AcDbEntity
  8
Drawing
 62
   250
420
  1842203
370
   100
100
AcDbVertex
100
AcDb2dVertex
 10
519.6945583698435
 20
-490.9211990036969
 30
0.0
  0
SEQEND
  5
1CA
330
1C7
100
AcDbEntity
  8
Drawing
 62
   250
420
  1842203
370
   100
  0
POLYLINE
  5
1CB
330
DF
100
AcDbEntity
  8
Drawing
 62
   250
420
  1842203
370
   100
100
AcDb2dPolyline
 66
     1
 10
0.0
 20
0.0
 30
0.0
  0
VERTEX
  5
1CC
330
1CB
100
AcDbEntity
  8
Drawing
 62
   250
420
  1842203
370
   100
100
AcDbVertex
100
AcDb2dVertex
 10
519.6945583698435
 20
-490.9211990036969
 30
0.0
  0
VERTEX
  5
1CD
330
1CB
100
AcDbEntity
  8
Drawing
 62
   250
420
  1842203
370
   100
100
AcDbVertex
100
AcDb2dVertex
 10
512.6945894213319
 20
-490.9211990036969
 30
0.0
  0
SEQEND
  5
1CE
330
1CB
100
AcDbEntity
  8
Drawing
 62
   250
420
  1842203
370
   100
  0
POLYLINE
  5
1CF
330
DF
100
AcDbEntity
  8
Drawing
 62
   250
420
  1842203
370
   100
100
AcDb2dPolyline
 66
     1
 10
0.0
 20
0.0
 30
0.0
  0
VERTEX
  5
1D0
330
1CF
100
AcDbEntity
  8
Drawing
 62
   250
420
  1842203
370
   100
100
AcDbVertex
100
AcDb2dVertex
 10
512.6945894213319
 20
-490.9211990036969
 30
0.0
  0
VERTEX
  5
1D1
330
1CF
100
AcDbEntity
  8
Drawing
 62
   250
420
  1842203
370
   100
100
AcDbVertex
100
AcDb2dVertex
 10
512.6945894213319
 20
-483.9212134953247
 30
0.0
  0
SEQEND
  5
1D2
330
1CF
100
AcDbEntity
  8
Drawing
 62
   250
420
  1842203
370
   100
  0
POLYLINE
  5
1D3
330
DF
100
AcDbEntity
  8
Drawing
 62
   250
420
  1842203
370
   100
100
AcDb2dPolyline
 66
     1
 10
0.0
 20
0.0
 30
0.0
  0
VERTEX
  5
1D4
330
1D3
100
AcDbEntity
  8
Drawing
 62
   250
420
  1842203
370
   100
100
AcDbVertex
100
AcDb2dVertex
 10
530.6948265776913
 20
-483.9212134953247
 30
0.0
  0
VERTEX
  5
1D5
330
1D3
100
AcDbEntity
  8
Drawing
 62
   250
420
  1842203
370
   100
100
AcDbVertex
100
AcDb2dVertex
 10
537.6947955262029
 20
-483.9212134953247
 30
0.0
  0
SEQEND
  5
1D6
330
1D3
100
AcDbEntity
  8
Drawing
 62
   250
420
  1842203
370
   100
  0
POLYLINE
  5
1D7
330
DF
100
AcDbEntity
  8
Drawing
 62
   250
420
  1842203
370
   100
100
AcDb2dPolyline
 66
     1
 10
0.0
 20
0.0
 30
0.0
  0
VERTEX
  5
1D8
330
1D7
100
AcDbEntity
  8
Drawing
 62
   250
420
  1842203
370
   100
100
AcDbVertex
100
AcDb2dVertex
 10
537.6947955262029
 20
-483.9212134953247
 30
0.0
  0
VERTEX
  5
1D9
330
1D7
100
AcDbEntity
  8
Drawing
 62
   250
420
  1842203
370
   100
100
AcDbVertex
100
AcDb2dVertex
 10
537.6947955262029
 20
-490.9211990036969
 30
0.0
  0
SEQEND
  5
1DA
330
1D7
100
AcDbEntity
  8
Drawing
 62
   250
420
  1842203
370
   100
  0
POLYLINE
  5
1DB
330
DF
100
AcDbEntity
  8
Drawing
 62
   250
420
  1842203
370
   100
100
AcDb2dPolyline
 66
     1
 10
0.0
 20
0.0
 30
0.0
  0
VERTEX
  5
1DC
330
1DB
100
AcDbEntity
  8
Drawing
 62
   250
420
  1842203
370
   100
100
AcDbVertex
100
AcDb2dVertex
 10
537.6947955262029
 20
-490.9211990036969
 30
0.0
  0
VERTEX
  5
1DD
330
1DB
100
AcDbEntity
  8
Drawing
 62
   250
420
  1842203
370
   100
100
AcDbVertex
100
AcDb2dVertex
 10
530.6948265776913
 20
-490.9211990036969
 30
0.0
  0
SEQEND
  5
1DE
330
1DB
100
AcDbEntity
  8
Drawing
 62
   250
420
  1842203
370
   100
  0
POLYLINE
  5
1DF
330
DF
100
AcDbEntity
  8
Drawing
 62
   250
420
  1842203
370
   100
100
AcDb2dPolyline
 66
     1
 10
0.0
 20
0.0
 30
0.0
  0
VERTEX
  5
1E0
330
1DF
100
AcDbEntity
  8
Drawing
 62
   250
420
  1842203
370
   100
100
AcDbVertex
100
AcDb2dVertex
 10
530.6948265776913
 20
-490.9211990036969
 30
0.0
  0
VERTEX
  5
1E1
330
1DF
100
AcDbEntity
  8
Drawing
 62
   250
420
  1842203
370
   100
100
AcDbVertex
100
AcDb2dVertex
 10
530.6948265776913
 20
-483.9212134953247
 30
0.0
  0
SEQEND
  5
1E2
330
1DF
100
AcDbEntity
  8
Drawing
 62
   250
420
  1842203
370
   100
  0
POLYLINE
  5
1E3
330
DF
100
AcDbEntity
  8
Drawing
 62
   250
420
  1842203
370
   100
100
AcDb2dPolyline
 66
     1
 10
0.0
 20
0.0
 30
0.0
  0
VERTEX
  5
1E4
330
1E3
100
AcDbEntity
  8
Drawing
 62
   250
420
  1842203
370
   100
100
AcDbVertex
100
AcDb2dVertex
 10
548.693970783258
 20
-483.9212134953247
 30
0.0
  0
VERTEX
  5
1E5
330
1E3
100
AcDbEntity
  8
Drawing
 62
   250
420
  1842203
370
   100
100
AcDbVertex
100
AcDb2dVertex
 10
555.6939562916302
 20
-483.9212134953247
 30
0.0
  0
SEQEND
  5
1E6
330
1E3
100
AcDbEntity
  8
Drawing
 62
   250
420
  1842203
370
   100
  0
POLYLINE
  5
1E7
330
DF
100
AcDbEntity
  8
Drawing
 62
   250
420
  1842203
370
   100
100
AcDb2dPolyline
 66
     1
 10
0.0
 20
0.0
 30
0.0
  0
VERTEX
  5
1E8
330
1E7
100
AcDbEntity
  8
Drawing
 62
   250
420
  1842203
370
   100
100
AcDbVertex
100
AcDb2dVertex
 10
555.6939562916302
 20
-483.9212134953247
 30
0.0
  0
VERTEX
  5
1E9
330
1E7
100
AcDbEntity
  8
Drawing
 62
   250
420
  1842203
370
   100
100
AcDbVertex
100
AcDb2dVertex
 10
555.6939562916302
 20
-490.9211990036969
 30
0.0
  0
SEQEND
  5
1EA
330
1E7
100
AcDbEntity
  8
Drawing
 62
   250
420
  1842203
370
   100
  0
POLYLINE
  5
1EB
330
DF
100
AcDbEntity
  8
Drawing
 62
   250
420
  1842203
370
   100
100
AcDb2dPolyline
 66
     1
 10
0.0
 20
0.0
 30
0.0
  0
VERTEX
  5
1EC
330
1EB
100
AcDbEntity
  8
Drawing
 62
   250
420
  1842203
370
   100
100
AcDbVertex
100
AcDb2dVertex
 10
555.6939562916302
 20
-490.9211990036969
 30
0.0
  0
VERTEX
  5
1ED
330
1EB
100
AcDbEntity
  8
Drawing
 62
   250
420
  1842203
370
   100
100
AcDbVertex
100
AcDb2dVertex
 10
548.693970783258
 20
-490.9211990036969
 30
0.0
  0
SEQEND
  5
1EE
330
1EB
100
AcDbEntity
  8
Drawing
 62
   250
420
  1842203
370
   100
  0
POLYLINE
  5
1EF
330
DF
100
AcDbEntity
  8
Drawing
 62
   250
420
  1842203
370
   100
100
AcDb2dPolyline
 66
     1
 10
0.0
 20
0.0
 30
0.0
  0
VERTEX
  5
1F0
330
1EF
100
AcDbEntity
  8
Drawing
 62
   250
420
  1842203
370
   100
100
AcDbVertex
100
AcDb2dVertex
 10
548.693970783258
 20
-490.9211990036969
 30
0.0
  0
VERTEX
  5
1F1
330
1EF
100
AcDbEntity
  8
Drawing
 62
   250
420
  1842203
370
   100
100
AcDbVertex
100
AcDb2dVertex
 10
548.693970783258
 20
-483.9212134953247
 30
0.0
  0
SEQEND
  5
1F2
330
1EF
100
AcDbEntity
  8
Drawing
 62
   250
420
  1842203
370
   100
  0
POLYLINE
  5
1F3
330
DF
100
AcDbEntity
  8
Drawing
 62
   250
420
  1842203
370
   100
100
AcDb2dPolyline
 66
     1
 10
0.0
 20
0.0
 30
0.0
  0
VERTEX
  5
1F4
330
1F3
100
AcDbEntity
  8
Drawing
 62
   250
420
  1842203
370
   100
100
AcDbVertex
100
AcDb2dVertex
 10
566.6942244994774
 20
-483.9212134953247
 30
0.0
  0
VERTEX
  5
1F5
330
1F3
100
AcDbEntity
  8
Drawing
 62
   250
420
  1842203
370
   100
100
AcDbVertex
100
AcDb2dVertex
 10
573.694193447989
 20
-483.9212134953247
 30
0.0
  0
SEQEND
  5
1F6
330
1F3
100
AcDbEntity
  8
Drawing
 62
   250
420
  1842203
370
   100
  0
POLYLINE
  5
1F7
330
DF
100
AcDbEntity
  8
Drawing
 62
   250
420
  1842203
370
   100
100
AcDb2dPolyline
 66
     1
 10
0.0
 20
0.0
 30
0.0
  0
VERTEX
  5
1F8
330
1F7
100
AcDbEntity
  8
Drawing
 62
   250
420
  1842203
370
   100
100
AcDbVertex
100
AcDb2dVertex
 10
573.694193447989
 20
-483.9212134953247
 30
0.0
  0
VERTEX
  5
1F9
330
1F7
100
AcDbEntity
  8
Drawing
 62
   250
420
  1842203
370
   100
100
AcDbVertex
100
AcDb2dVertex
 10
573.694193447989
 20
-490.9211990036969
 30
0.0
  0
SEQEND
  5
1FA
330
1F7
100
AcDbEntity
  8
Drawing
 62
   250
420
  1842203
370
   100
  0
POLYLINE
  5
1FB
330
DF
100
AcDbEntity
  8
Drawing
 62
   250
420
  1842203
370
   100
100
AcDb2dPolyline
 66
     1
 10
0.0
 20
0.0
 30
0.0
  0
VERTEX
  5
1FC
330
1FB
100
AcDbEntity
  8
Drawing
 62
   250
420
  1842203
370
   100
100
AcDbVertex
100
AcDb2dVertex
 10
573.694193447989
 20
-490.9211990036969
 30
0.0
  0
VERTEX
  5
1FD
330
1FB
100
AcDbEntity
  8
Drawing
 62
   250
420
  1842203
370
   100
100
AcDbVertex
100
AcDb2dVertex
 10
566.6942244994774
 20
-490.9211990036969
 30
0.0
  0
SEQEND
  5
1FE
330
1FB
100
AcDbEntity
  8
Drawing
 62
   250
420
  1842203
370
   100
  0
POLYLINE
  5
1FF
330
DF
100
AcDbEntity
  8
Drawing
 62
   250
420
  1842203
370
   100
100
AcDb2dPolyline
 66
     1
 10
0.0
 20
0.0
 30
0.0
  0
VERTEX
  5
200
330
1FF
100
AcDbEntity
  8
Drawing
 62
   250
420
  1842203
370
   100
100
AcDbVertex
100
AcDb2dVertex
 10
566.6942244994774
 20
-490.9211990036969
 30
0.0
  0
VERTEX
  5
201
330
1FF
100
AcDbEntity
  8
Drawing
 62
   250
420
  1842203
370
   100
100
AcDbVertex
100
AcDb2dVertex
 10
566.6942244994774
 20
-483.9212134953247
 30
0.0
  0
SEQEND
  5
202
330
1FF
100
AcDbEntity
  8
Drawing
 62
   250
420
  1842203
370
   100
  0
POLYLINE
  5
203
330
DF
100
AcDbEntity
  8
Drawing
 62
   250
420
  1842203
370
   100
100
AcDb2dPolyline
 66
     1
 10
0.0
 20
0.0
 30
0.0
  0
VERTEX
  5
204
330
203
100
AcDbEntity
  8
Drawing
 62
   250
420
  1842203
370
   100
100
AcDbVertex
100
AcDb2dVertex
 10
584.6944616558369
 20
-483.9212134953247
 30
0.0
  0
VERTEX
  5
205
330
203
100
AcDbEntity
  8
Drawing
 62
   250
420
  1842203
370
   100
100
AcDbVertex
100
AcDb2dVertex
 10
591.6944140444879
 20
-483.9212134953247
 30
0.0
  0
SEQEND
  5
206
330
203
100
AcDbEntity
  8
Drawing
 62
   250
420
  1842203
370
   100
  0
POLYLINE
  5
207
330
DF
100
AcDbEntity
  8
Drawing
 62
   250
420
  1842203
370
   100
100
AcDb2dPolyline
 66
     1
 10
0.0
 20
0.0
 30
0.0
  0
VERTEX
  5
208
330
207
100
AcDbEntity
  8
Drawing
 62
   250
420
  1842203
370
   100
100
AcDbVertex
100
AcDb2dVertex
 10
591.6944140444879
 20
-483.9212134953247
 30
0.0
  0
VERTEX
  5
209
330
207
100
AcDbEntity
  8
Drawing
 62
   250
420
  1842203
370
   100
100
AcDbVertex
100
AcDb2dVertex
 10
591.6944140444879
 20
-490.9211990036969
 30
0.0
  0
SEQEND
  5
20A
330
207
100
AcDbEntity
  8
Drawing
 62
   250
420
  1842203
370
   100
  0
POLYLINE
  5
20B
330
DF
100
AcDbEntity
  8
Drawing
 62
   250
420
  1842203
370
   100
100
AcDb2dPolyline
 66
     1
 10
0.0
 20
0.0
 30
0.0
  0
VERTEX
  5
20C
330
20B
100
AcDbEntity
  8
Drawing
 62
   250
420
  1842203
370
   100
100
AcDbVertex
100
AcDb2dVertex
 10
591.6944140444879
 20
-490.9211990036969
 30
0.0
  0
VERTEX
  5
20D
330
20B
100
AcDbEntity
  8
Drawing
 62
   250
420
  1842203
370
   100
100
AcDbVertex
100
AcDb2dVertex
 10
584.6944616558369
 20
-490.9211990036969
 30
0.0
  0
SEQEND
  5
20E
330
20B
100
AcDbEntity
  8
Drawing
 62
   250
420
  1842203
370
   100
  0
POLYLINE
  5
20F
330
DF
100
AcDbEntity
  8
Drawing
 62
   250
420
  1842203
370
   100
100
AcDb2dPolyline
 66
     1
 10
0.0
 20
0.0
 30
0.0
  0
VERTEX
  5
210
330
20F
100
AcDbEntity
  8
Drawing
 62
   250
420
  1842203
370
   100
100
AcDbVertex
100
AcDb2dVertex
 10
584.6944616558369
 20
-490.9211990036969
 30
0.0
  0
VERTEX
  5
211
330
20F
100
AcDbEntity
  8
Drawing
 62
   250
420
  1842203
370
   100
100
AcDbVertex
100
AcDb2dVertex
 10
584.6944616558369
 20
-483.9212134953247
 30
0.0
  0
SEQEND
  5
212
330
20F
100
AcDbEntity
  8
Drawing
 62
   250
420
  1842203
370
   100
  0
POLYLINE
  5
213
330
DF
100
AcDbEntity
  8
Drawing
 62
   250
420
  1842203
370
   100
100
AcDb2dPolyline
 66
     1
 10
0.0
 20
0.0
 30
0.0
  0
VERTEX
  5
214
330
213
100
AcDbEntity
  8
Drawing
 62
   250
420
  1842203
370
   100
100
AcDbVertex
100
AcDb2dVertex
 10
440.6947171868275
 20
-501.9214506516813
 30
0.0
  0
VERTEX
  5
215
330
213
100
AcDbEntity
  8
Drawing
 62
   250
420
  1842203
370
   100
100
AcDbVertex
100
AcDb2dVertex
 10
447.6946861353385
 20
-501.9214506516813
 30
0.0
  0
SEQEND
  5
216
330
213
100
AcDbEntity
  8
Drawing
 62
   250
420
  1842203
370
   100
  0
POLYLINE
  5
217
330
DF
100
AcDbEntity
  8
Drawing
 62
   250
420
  1842203
370
   100
100
AcDb2dPolyline
 66
     1
 10
0.0
 20
0.0
 30
0.0
  0
VERTEX
  5
218
330
217
100
AcDbEntity
  8
Drawing
 62
   250
420
  1842203
370
   100
100
AcDbVertex
100
AcDb2dVertex
 10
447.6946861353385
 20
-501.9214506516813
 30
0.0
  0
VERTEX
  5
219
330
217
100
AcDbEntity
  8
Drawing
 62
   250
420
  1842203
370
   100
100
AcDbVertex
100
AcDb2dVertex
 10
447.6946861353385
 20
-508.9214361600535
 30
0.0
  0
SEQEND
  5
21A
330
217
100
AcDbEntity
  8
Drawing
 62
   250
420
  1842203
370
   100
  0
POLYLINE
  5
21B
330
DF
100
AcDbEntity
  8
Drawing
 62
   250
420
  1842203
370
   100
100
AcDb2dPolyline
 66
     1
 10
0.0
 20
0.0
 30
0.0
  0
VERTEX
  5
21C
330
21B
100
AcDbEntity
  8
Drawing
 62
   250
420
  1842203
370
   100
100
AcDbVertex
100
AcDb2dVertex
 10
447.6946861353385
 20
-508.9214361600535
 30
0.0
  0
VERTEX
  5
21D
330
21B
100
AcDbEntity
  8
Drawing
 62
   250
420
  1842203
370
   100
100
AcDbVertex
100
AcDb2dVertex
 10
440.6947171868275
 20
-508.9214361600535
 30
0.0
  0
SEQEND
  5
21E
330
21B
100
AcDbEntity
  8
Drawing
 62
   250
420
  1842203
370
   100
  0
POLYLINE
  5
21F
330
DF
100
AcDbEntity
  8
Drawing
 62
   250
420
  1842203
370
   100
100
AcDb2dPolyline
 66
     1
 10
0.0
 20
0.0
 30
0.0
  0
VERTEX
  5
220
330
21F
100
AcDbEntity
  8
Drawing
 62
   250
420
  1842203
370
   100
100
AcDbVertex
100
AcDb2dVertex
 10
440.6947171868275
 20
-508.9214361600535
 30
0.0
  0
VERTEX
  5
221
330
21F
100
AcDbEntity
  8
Drawing
 62
   250
420
  1842203
370
   100
100
AcDbVertex
100
AcDb2dVertex
 10
440.6947171868275
 20
-501.9214506516813
 30
0.0
  0
SEQEND
  5
222
330
21F
100
AcDbEntity
  8
Drawing
 62
   250
420
  1842203
370
   100
  0
POLYLINE
  5
223
330
DF
100
AcDbEntity
  8
Drawing
 62
   250
420
  1842203
370
   100
100
AcDb2dPolyline
 66
     1
 10
0.0
 20
0.0
 30
0.0
  0
VERTEX
  5
224
330
223
100
AcDbEntity
  8
Drawing
 62
   250
420
  1842203
370
   100
100
AcDbVertex
100
AcDb2dVertex
 10
458.6949543431866
 20
-501.9214506516813
 30
0.0
  0
VERTEX
  5
225
330
223
100
AcDbEntity
  8
Drawing
 62
   250
420
  1842203
370
   100
100
AcDbVertex
100
AcDb2dVertex
 10
465.6949232916979
 20
-501.9214506516813
 30
0.0
  0
SEQEND
  5
226
330
223
100
AcDbEntity
  8
Drawing
 62
   250
420
  1842203
370
   100
  0
POLYLINE
  5
227
330
DF
100
AcDbEntity
  8
Drawing
 62
   250
420
  1842203
370
   100
100
AcDb2dPolyline
 66
     1
 10
0.0
 20
0.0
 30
0.0
  0
VERTEX
  5
228
330
227
100
AcDbEntity
  8
Drawing
 62
   250
420
  1842203
370
   100
100
AcDbVertex
100
AcDb2dVertex
 10
465.6949232916979
 20
-501.9214506516813
 30
0.0
  0
VERTEX
  5
229
330
227
100
AcDbEntity
  8
Drawing
 62
   250
420
  1842203
370
   100
100
AcDbVertex
100
AcDb2dVertex
 10
465.6949232916979
 20
-508.9214361600535
 30
0.0
  0
SEQEND
  5
22A
330
227
100
AcDbEntity
  8
Drawing
 62
   250
420
  1842203
370
   100
  0
POLYLINE
  5
22B
330
DF
100
AcDbEntity
  8
Drawing
 62
   250
420
  1842203
370
   100
100
AcDb2dPolyline
 66
     1
 10
0.0
 20
0.0
 30
0.0
  0
VERTEX
  5
22C
330
22B
100
AcDbEntity
  8
Drawing
 62
   250
420
  1842203
370
   100
100
AcDbVertex
100
AcDb2dVertex
 10
465.6949232916979
 20
-508.9214361600535
 30
0.0
  0
VERTEX
  5
22D
330
22B
100
AcDbEntity
  8
Drawing
 62
   250
420
  1842203
370
   100
100
AcDbVertex
100
AcDb2dVertex
 10
458.6949543431866
 20
-508.9214361600535
 30
0.0
  0
SEQEND
  5
22E
330
22B
100
AcDbEntity
  8
Drawing
 62
   250
420
  1842203
370
   100
  0
POLYLINE
  5
22F
330
DF
100
AcDbEntity
  8
Drawing
 62
   250
420
  1842203
370
   100
100
AcDb2dPolyline
 66
     1
 10
0.0
 20
0.0
 30
0.0
  0
VERTEX
  5
230
330
22F
100
AcDbEntity
  8
Drawing
 62
   250
420
  1842203
370
   100
100
AcDbVertex
100
AcDb2dVertex
 10
458.6949543431866
 20
-508.9214361600535
 30
0.0
  0
VERTEX
  5
231
330
22F
100
AcDbEntity
  8
Drawing
 62
   250
420
  1842203
370
   100
100
AcDbVertex
100
AcDb2dVertex
 10
458.6949543431866
 20
-501.9214506516813
 30
0.0
  0
SEQEND
  5
232
330
22F
100
AcDbEntity
  8
Drawing
 62
   250
420
  1842203
370
   100
  0
POLYLINE
  5
233
330
DF
100
AcDbEntity
  8
Drawing
 62
   250
420
  1842203
370
   100
100
AcDb2dPolyline
 66
     1
 10
0.0
 20
0.0
 30
0.0
  0
VERTEX
  5
234
330
233
100
AcDbEntity
  8
Drawing
 62
   250
420
  1842203
370
   100
100
AcDbVertex
100
AcDb2dVertex
 10
476.6941151086139
 20
-501.9214506516813
 30
0.0
  0
VERTEX
  5
235
330
233
100
AcDbEntity
  8
Drawing
 62
   250
420
  1842203
370
   100
100
AcDbVertex
100
AcDb2dVertex
 10
483.6940840571255
 20
-501.9214506516813
 30
0.0
  0
SEQEND
  5
236
330
233
100
AcDbEntity
  8
Drawing
 62
   250
420
  1842203
370
   100
  0
POLYLINE
  5
237
330
DF
100
AcDbEntity
  8
Drawing
 62
   250
420
  1842203
370
   100
100
AcDb2dPolyline
 66
     1
 10
0.0
 20
0.0
 30
0.0
  0
VERTEX
  5
238
330
237
100
AcDbEntity
  8
Drawing
 62
   250
420
  1842203
370
   100
100
AcDbVertex
100
AcDb2dVertex
 10
483.6940840571255
 20
-501.9214506516813
 30
0.0
  0
VERTEX
  5
239
330
237
100
AcDbEntity
  8
Drawing
 62
   250
420
  1842203
370
   100
100
AcDbVertex
100
AcDb2dVertex
 10
483.6940840571255
 20
-508.9214361600535
 30
0.0
  0
SEQEND
  5
23A
330
237
100
AcDbEntity
  8
Drawing
 62
   250
420
  1842203
370
   100
  0
POLYLINE
  5
23B
330
DF
100
AcDbEntity
  8
Drawing
 62
   250
420
  1842203
370
   100
100
AcDb2dPolyline
 66
     1
 10
0.0
 20
0.0
 30
0.0
  0
VERTEX
  5
23C
330
23B
100
AcDbEntity
  8
Drawing
 62
   250
420
  1842203
370
   100
100
AcDbVertex
100
AcDb2dVertex
 10
483.6940840571255
 20
-508.9214361600535
 30
0.0
  0
VERTEX
  5
23D
330
23B
100
AcDbEntity
  8
Drawing
 62
   250
420
  1842203
370
   100
100
AcDbVertex
100
AcDb2dVertex
 10
476.6941151086139
 20
-508.9214361600535
 30
0.0
  0
SEQEND
  5
23E
330
23B
100
AcDbEntity
  8
Drawing
 62
   250
420
  1842203
370
   100
  0
POLYLINE
  5
23F
330
DF
100
AcDbEntity
  8
Drawing
 62
   250
420
  1842203
370
   100
100
AcDb2dPolyline
 66
     1
 10
0.0
 20
0.0
 30
0.0
  0
VERTEX
  5
240
330
23F
100
AcDbEntity
  8
Drawing
 62
   250
420
  1842203
370
   100
100
AcDbVertex
100
AcDb2dVertex
 10
476.6941151086139
 20
-508.9214361600535
 30
0.0
  0
VERTEX
  5
241
330
23F
100
AcDbEntity
  8
Drawing
 62
   250
420
  1842203
370
   100
100
AcDbVertex
100
AcDb2dVertex
 10
476.6941151086139
 20
-501.9214506516813
 30
0.0
  0
SEQEND
  5
242
330
23F
100
AcDbEntity
  8
Drawing
 62
   250
420
  1842203
370
   100
  0
POLYLINE
  5
243
330
DF
100
AcDbEntity
  8
Drawing
 62
   250
420
  1842203
370
   100
100
AcDb2dPolyline
 66
     1
 10
0.0
 20
0.0
 30
0.0
  0
VERTEX
  5
244
330
243
100
AcDbEntity
  8
Drawing
 62
   250
420
  1842203
370
   100
100
AcDbVertex
100
AcDb2dVertex
 10
494.694352264973
 20
-501.9214506516813
 30
0.0
  0
VERTEX
  5
245
330
243
100
AcDbEntity
  8
Drawing
 62
   250
420
  1842203
370
   100
100
AcDbVertex
100
AcDb2dVertex
 10
501.6943212134847
 20
-501.9214506516813
 30
0.0
  0
SEQEND
  5
246
330
243
100
AcDbEntity
  8
Drawing
 62
   250
420
  1842203
370
   100
  0
POLYLINE
  5
247
330
DF
100
AcDbEntity
  8
Drawing
 62
   250
420
  1842203
370
   100
100
AcDb2dPolyline
 66
     1
 10
0.0
 20
0.0
 30
0.0
  0
VERTEX
  5
248
330
247
100
AcDbEntity
  8
Drawing
 62
   250
420
  1842203
370
   100
100
AcDbVertex
100
AcDb2dVertex
 10
501.6943212134847
 20
-501.9214506516813
 30
0.0
  0
VERTEX
  5
249
330
247
100
AcDbEntity
  8
Drawing
 62
   250
420
  1842203
370
   100
100
AcDbVertex
100
AcDb2dVertex
 10
501.6943212134847
 20
-508.9214361600535
 30
0.0
  0
SEQEND
  5
24A
330
247
100
AcDbEntity
  8
Drawing
 62
   250
420
  1842203
370
   100
  0
POLYLINE
  5
24B
330
DF
100
AcDbEntity
  8
Drawing
 62
   250
420
  1842203
370
   100
100
AcDb2dPolyline
 66
     1
 10
0.0
 20
0.0
 30
0.0
  0
VERTEX
  5
24C
330
24B
100
AcDbEntity
  8
Drawing
 62
   250
420
  1842203
370
   100
100
AcDbVertex
100
AcDb2dVertex
 10
501.6943212134847
 20
-508.9214361600535
 30
0.0
  0
VERTEX
  5
24D
330
24B
100
AcDbEntity
  8
Drawing
 62
   250
420
  1842203
370
   100
100
AcDbVertex
100
AcDb2dVertex
 10
494.694352264973
 20
-508.9214361600535
 30
0.0
  0
SEQEND
  5
24E
330
24B
100
AcDbEntity
  8
Drawing
 62
   250
420
  1842203
370
   100
  0
POLYLINE
  5
24F
330
DF
100
AcDbEntity
  8
Drawing
 62
   250
420
  1842203
370
   100
100
AcDb2dPolyline
 66
     1
 10
0.0
 20
0.0
 30
0.0
  0
VERTEX
  5
250
330
24F
100
AcDbEntity
  8
Drawing
 62
   250
420
  1842203
370
   100
100
AcDbVertex
100
AcDb2dVertex
 10
494.694352264973
 20
-508.9214361600535
 30
0.0
  0
VERTEX
  5
251
330
24F
100
AcDbEntity
  8
Drawing
 62
   250
420
  1842203
370
   100
100
AcDbVertex
100
AcDb2dVertex
 10
494.694352264973
 20
-501.9214506516813
 30
0.0
  0
SEQEND
  5
252
330
24F
100
AcDbEntity
  8
Drawing
 62
   250
420
  1842203
370
   100
  0
POLYLINE
  5
253
330
DF
100
AcDbEntity
  8
Drawing
 62
   250
420
  1842203
370
   100
100
AcDb2dPolyline
 66
     1
 10
0.0
 20
0.0
 30
0.0
  0
VERTEX
  5
254
330
253
100
AcDbEntity
  8
Drawing
 62
   250
420
  1842203
370
   100
100
AcDbVertex
100
AcDb2dVertex
 10
512.6945894213319
 20
-501.9214506516813
 30
0.0
  0
VERTEX
  5
255
330
253
100
AcDbEntity
  8
Drawing
 62
   250
420
  1842203
370
   100
100
AcDbVertex
100
AcDb2dVertex
 10
519.6945583698435
 20
-501.9214506516813
 30
0.0
  0
SEQEND
  5
256
330
253
100
AcDbEntity
  8
Drawing
 62
   250
420
  1842203
370
   100
  0
POLYLINE
  5
257
330
DF
100
AcDbEntity
  8
Drawing
 62
   250
420
  1842203
370
   100
100
AcDb2dPolyline
 66
     1
 10
0.0
 20
0.0
 30
0.0
  0
VERTEX
  5
258
330
257
100
AcDbEntity
  8
Drawing
 62
   250
420
  1842203
370
   100
100
AcDbVertex
100
AcDb2dVertex
 10
519.6945583698435
 20
-501.9214506516813
 30
0.0
  0
VERTEX
  5
259
330
257
100
AcDbEntity
  8
Drawing
 62
   250
420
  1842203
370
   100
100
AcDbVertex
100
AcDb2dVertex
 10
519.6945583698435
 20
-508.9214361600535
 30
0.0
  0
SEQEND
  5
25A
330
257
100
AcDbEntity
  8
Drawing
 62
   250
420
  1842203
370
   100
  0
POLYLINE
  5
25B
330
DF
100
AcDbEntity
  8
Drawing
 62
   250
420
  1842203
370
   100
100
AcDb2dPolyline
 66
     1
 10
0.0
 20
0.0
 30
0.0
  0
VERTEX
  5
25C
330
25B
100
AcDbEntity
  8
Drawing
 62
   250
420
  1842203
370
   100
100
AcDbVertex
100
AcDb2dVertex
 10
519.6945583698435
 20
-508.9214361600535
 30
0.0
  0
VERTEX
  5
25D
330
25B
100
AcDbEntity
  8
Drawing
 62
   250
420
  1842203
370
   100
100
AcDbVertex
100
AcDb2dVertex
 10
512.6945894213319
 20
-508.9214361600535
 30
0.0
  0
SEQEND
  5
25E
330
25B
100
AcDbEntity
  8
Drawing
 62
   250
420
  1842203
370
   100
  0
POLYLINE
  5
25F
330
DF
100
AcDbEntity
  8
Drawing
 62
   250
420
  1842203
370
   100
100
AcDb2dPolyline
 66
     1
 10
0.0
 20
0.0
 30
0.0
  0
VERTEX
  5
260
330
25F
100
AcDbEntity
  8
Drawing
 62
   250
420
  1842203
370
   100
100
AcDbVertex
100
AcDb2dVertex
 10
512.6945894213319
 20
-508.9214361600535
 30
0.0
  0
VERTEX
  5
261
330
25F
100
AcDbEntity
  8
Drawing
 62
   250
420
  1842203
370
   100
100
AcDbVertex
100
AcDb2dVertex
 10
512.6945894213319
 20
-501.9214506516813
 30
0.0
  0
SEQEND
  5
262
330
25F
100
AcDbEntity
  8
Drawing
 62
   250
420
  1842203
370
   100
  0
POLYLINE
  5
263
330
DF
100
AcDbEntity
  8
Drawing
 62
   250
420
  1842203
370
   100
100
AcDb2dPolyline
 66
     1
 10
0.0
 20
0.0
 30
0.0
  0
VERTEX
  5
264
330
263
100
AcDbEntity
  8
Drawing
 62
   250
420
  1842203
370
   100
100
AcDbVertex
100
AcDb2dVertex
 10
530.6948265776913
 20
-501.9214506516813
 30
0.0
  0
VERTEX
  5
265
330
263
100
AcDbEntity
  8
Drawing
 62
   250
420
  1842203
370
   100
100
AcDbVertex
100
AcDb2dVertex
 10
537.6947955262029
 20
-501.9214506516813
 30
0.0
  0
SEQEND
  5
266
330
263
100
AcDbEntity
  8
Drawing
 62
   250
420
  1842203
370
   100
  0
POLYLINE
  5
267
330
DF
100
AcDbEntity
  8
Drawing
 62
   250
420
  1842203
370
   100
100
AcDb2dPolyline
 66
     1
 10
0.0
 20
0.0
 30
0.0
  0
VERTEX
  5
268
330
267
100
AcDbEntity
  8
Drawing
 62
   250
420
  1842203
370
   100
100
AcDbVertex
100
AcDb2dVertex
 10
537.6947955262029
 20
-501.9214506516813
 30
0.0
  0
VERTEX
  5
269
330
267
100
AcDbEntity
  8
Drawing
 62
   250
420
  1842203
370
   100
100
AcDbVertex
100
AcDb2dVertex
 10
537.6947955262029
 20
-508.9214361600535
 30
0.0
  0
SEQEND
  5
26A
330
267
100
AcDbEntity
  8
Drawing
 62
   250
420
  1842203
370
   100
  0
POLYLINE
  5
26B
330
DF
100
AcDbEntity
  8
Drawing
 62
   250
420
  1842203
370
   100
100
AcDb2dPolyline
 66
     1
 10
0.0
 20
0.0
 30
0.0
  0
VERTEX
  5
26C
330
26B
100
AcDbEntity
  8
Drawing
 62
   250
420
  1842203
370
   100
100
AcDbVertex
100
AcDb2dVertex
 10
537.6947955262029
 20
-508.9214361600535
 30
0.0
  0
VERTEX
  5
26D
330
26B
100
AcDbEntity
  8
Drawing
 62
   250
420
  1842203
370
   100
100
AcDbVertex
100
AcDb2dVertex
 10
530.6948265776913
 20
-508.9214361600535
 30
0.0
  0
SEQEND
  5
26E
330
26B
100
AcDbEntity
  8
Drawing
 62
   250
420
  1842203
370
   100
  0
POLYLINE
  5
26F
330
DF
100
AcDbEntity
  8
Drawing
 62
   250
420
  1842203
370
   100
100
AcDb2dPolyline
 66
     1
 10
0.0
 20
0.0
 30
0.0
  0
VERTEX
  5
270
330
26F
100
AcDbEntity
  8
Drawing
 62
   250
420
  1842203
370
   100
100
AcDbVertex
100
AcDb2dVertex
 10
530.6948265776913
 20
-508.9214361600535
 30
0.0
  0
VERTEX
  5
271
330
26F
100
AcDbEntity
  8
Drawing
 62
   250
420
  1842203
370
   100
100
AcDbVertex
100
AcDb2dVertex
 10
530.6948265776913
 20
-501.9214506516813
 30
0.0
  0
SEQEND
  5
272
330
26F
100
AcDbEntity
  8
Drawing
 62
   250
420
  1842203
370
   100
  0
POLYLINE
  5
273
330
DF
100
AcDbEntity
  8
Drawing
 62
   250
420
  1842203
370
   100
100
AcDb2dPolyline
 66
     1
 10
0.0
 20
0.0
 30
0.0
  0
VERTEX
  5
274
330
273
100
AcDbEntity
  8
Drawing
 62
   250
420
  1842203
370
   100
100
AcDbVertex
100
AcDb2dVertex
 10
548.693970783258
 20
-501.9214506516813
 30
0.0
  0
VERTEX
  5
275
330
273
100
AcDbEntity
  8
Drawing
 62
   250
420
  1842203
370
   100
100
AcDbVertex
100
AcDb2dVertex
 10
555.6939562916302
 20
-501.9214506516813
 30
0.0
  0
SEQEND
  5
276
330
273
100
AcDbEntity
  8
Drawing
 62
   250
420
  1842203
370
   100
  0
POLYLINE
  5
277
330
DF
100
AcDbEntity
  8
Drawing
 62
   250
420
  1842203
370
   100
100
AcDb2dPolyline
 66
     1
 10
0.0
 20
0.0
 30
0.0
  0
VERTEX
  5
278
330
277
100
AcDbEntity
  8
Drawing
 62
   250
420
  1842203
370
   100
100
AcDbVertex
100
AcDb2dVertex
 10
555.6939562916302
 20
-501.9214506516813
 30
0.0
  0
VERTEX
  5
279
330
277
100
AcDbEntity
  8
Drawing
 62
   250
420
  1842203
370
   100
100
AcDbVertex
100
AcDb2dVertex
 10
555.6939562916302
 20
-508.9214361600535
 30
0.0
  0
SEQEND
  5
27A
330
277
100
AcDbEntity
  8
Drawing
 62
   250
420
  1842203
370
   100
  0
POLYLINE
  5
27B
330
DF
100
AcDbEntity
  8
Drawing
 62
   250
420
  1842203
370
   100
100
AcDb2dPolyline
 66
     1
 10
0.0
 20
0.0
 30
0.0
  0
VERTEX
  5
27C
330
27B
100
AcDbEntity
  8
Drawing
 62
   250
420
  1842203
370
   100
100
AcDbVertex
100
AcDb2dVertex
 10
555.6939562916302
 20
-508.9214361600535
 30
0.0
  0
VERTEX
  5
27D
330
27B
100
AcDbEntity
  8
Drawing
 62
   250
420
  1842203
370
   100
100
AcDbVertex
100
AcDb2dVertex
 10
548.693970783258
 20
-508.9214361600535
 30
0.0
  0
SEQEND
  5
27E
330
27B
100
AcDbEntity
  8
Drawing
 62
   250
420
  1842203
370
   100
  0
POLYLINE
  5
27F
330
DF
100
AcDbEntity
  8
Drawing
 62
   250
420
  1842203
370
   100
100
AcDb2dPolyline
 66
     1
 10
0.0
 20
0.0
 30
0.0
  0
VERTEX
  5
280
330
27F
100
AcDbEntity
  8
Drawing
 62
   250
420
  1842203
370
   100
100
AcDbVertex
100
AcDb2dVertex
 10
548.693970783258
 20
-508.9214361600535
 30
0.0
  0
VERTEX
  5
281
330
27F
100
AcDbEntity
  8
Drawing
 62
   250
420
  1842203
370
   100
100
AcDbVertex
100
AcDb2dVertex
 10
548.693970783258
 20
-501.9214506516813
 30
0.0
  0
SEQEND
  5
282
330
27F
100
AcDbEntity
  8
Drawing
 62
   250
420
  1842203
370
   100
  0
POLYLINE
  5
283
330
DF
100
AcDbEntity
  8
Drawing
 62
   250
420
  1842203
370
   100
100
AcDb2dPolyline
 66
     1
 10
0.0
 20
0.0
 30
0.0
  0
VERTEX
  5
284
330
283
100
AcDbEntity
  8
Drawing
 62
   250
420
  1842203
370
   100
100
AcDbVertex
100
AcDb2dVertex
 10
566.6942244994774
 20
-501.9214506516813
 30
0.0
  0
VERTEX
  5
285
330
283
100
AcDbEntity
  8
Drawing
 62
   250
420
  1842203
370
   100
100
AcDbVertex
100
AcDb2dVertex
 10
573.694193447989
 20
-501.9214506516813
 30
0.0
  0
SEQEND
  5
286
330
283
100
AcDbEntity
  8
Drawing
 62
   250
420
  1842203
370
   100
  0
POLYLINE
  5
287
330
DF
100
AcDbEntity
  8
Drawing
 62
   250
420
  1842203
370
   100
100
AcDb2dPolyline
 66
     1
 10
0.0
 20
0.0
 30
0.0
  0
VERTEX
  5
288
330
287
100
AcDbEntity
  8
Drawing
 62
   250
420
  1842203
370
   100
100
AcDbVertex
100
AcDb2dVertex
 10
573.694193447989
 20
-501.9214506516813
 30
0.0
  0
VERTEX
  5
289
330
287
100
AcDbEntity
  8
Drawing
 62
   250
420
  1842203
370
   100
100
AcDbVertex
100
AcDb2dVertex
 10
573.694193447989
 20
-508.9214361600535
 30
0.0
  0
SEQEND
  5
28A
330
287
100
AcDbEntity
  8
Drawing
 62
   250
420
  1842203
370
   100
  0
POLYLINE
  5
28B
330
DF
100
AcDbEntity
  8
Drawing
 62
   250
420
  1842203
370
   100
100
AcDb2dPolyline
 66
     1
 10
0.0
 20
0.0
 30
0.0
  0
VERTEX
  5
28C
330
28B
100
AcDbEntity
  8
Drawing
 62
   250
420
  1842203
370
   100
100
AcDbVertex
100
AcDb2dVertex
 10
573.694193447989
 20
-508.9214361600535
 30
0.0
  0
VERTEX
  5
28D
330
28B
100
AcDbEntity
  8
Drawing
 62
   250
420
  1842203
370
   100
100
AcDbVertex
100
AcDb2dVertex
 10
566.6942244994774
 20
-508.9214361600535
 30
0.0
  0
SEQEND
  5
28E
330
28B
100
AcDbEntity
  8
Drawing
 62
   250
420
  1842203
370
   100
  0
POLYLINE
  5
28F
330
DF
100
AcDbEntity
  8
Drawing
 62
   250
420
  1842203
370
   100
100
AcDb2dPolyline
 66
     1
 10
0.0
 20
0.0
 30
0.0
  0
VERTEX
  5
290
330
28F
100
AcDbEntity
  8
Drawing
 62
   250
420
  1842203
370
   100
100
AcDbVertex
100
AcDb2dVertex
 10
566.6942244994774
 20
-508.9214361600535
 30
0.0
  0
VERTEX
  5
291
330
28F
100
AcDbEntity
  8
Drawing
 62
   250
420
  1842203
370
   100
100
AcDbVertex
100
AcDb2dVertex
 10
566.6942244994774
 20
-501.9214506516813
 30
0.0
  0
SEQEND
  5
292
330
28F
100
AcDbEntity
  8
Drawing
 62
   250
420
  1842203
370
   100
  0
POLYLINE
  5
293
330
DF
100
AcDbEntity
  8
Drawing
 62
   250
420
  1842203
370
   100
100
AcDb2dPolyline
 66
     1
 10
0.0
 20
0.0
 30
0.0
  0
VERTEX
  5
294
330
293
100
AcDbEntity
  8
Drawing
 62
   250
420
  1842203
370
   100
100
AcDbVertex
100
AcDb2dVertex
 10
584.6944616558369
 20
-501.9214506516813
 30
0.0
  0
VERTEX
  5
295
330
293
100
AcDbEntity
  8
Drawing
 62
   250
420
  1842203
370
   100
100
AcDbVertex
100
AcDb2dVertex
 10
591.6944140444879
 20
-501.9214506516813
 30
0.0
  0
SEQEND
  5
296
330
293
100
AcDbEntity
  8
Drawing
 62
   250
420
  1842203
370
   100
  0
POLYLINE
  5
297
330
DF
100
AcDbEntity
  8
Drawing
 62
   250
420
  1842203
370
   100
100
AcDb2dPolyline
 66
     1
 10
0.0
 20
0.0
 30
0.0
  0
VERTEX
  5
298
330
297
100
AcDbEntity
  8
Drawing
 62
   250
420
  1842203
370
   100
100
AcDbVertex
100
AcDb2dVertex
 10
591.6944140444879
 20
-501.9214506516813
 30
0.0
  0
VERTEX
  5
299
330
297
100
AcDbEntity
  8
Drawing
 62
   250
420
  1842203
370
   100
100
AcDbVertex
100
AcDb2dVertex
 10
591.6944140444879
 20
-508.9214361600535
 30
0.0
  0
SEQEND
  5
29A
330
297
100
AcDbEntity
  8
Drawing
 62
   250
420
  1842203
370
   100
  0
POLYLINE
  5
29B
330
DF
100
AcDbEntity
  8
Drawing
 62
   250
420
  1842203
370
   100
100
AcDb2dPolyline
 66
     1
 10
0.0
 20
0.0
 30
0.0
  0
VERTEX
  5
29C
330
29B
100
AcDbEntity
  8
Drawing
 62
   250
420
  1842203
370
   100
100
AcDbVertex
100
AcDb2dVertex
 10
591.6944140444879
 20
-508.9214361600535
 30
0.0
  0
VERTEX
  5
29D
330
29B
100
AcDbEntity
  8
Drawing
 62
   250
420
  1842203
370
   100
100
AcDbVertex
100
AcDb2dVertex
 10
584.6944616558369
 20
-508.9214361600535
 30
0.0
  0
SEQEND
  5
29E
330
29B
100
AcDbEntity
  8
Drawing
 62
   250
420
  1842203
370
   100
  0
POLYLINE
  5
29F
330
DF
100
AcDbEntity
  8
Drawing
 62
   250
420
  1842203
370
   100
100
AcDb2dPolyline
 66
     1
 10
0.0
 20
0.0
 30
0.0
  0
VERTEX
  5
2A0
330
29F
100
AcDbEntity
  8
Drawing
 62
   250
420
  1842203
370
   100
100
AcDbVertex
100
AcDb2dVertex
 10
584.6944616558369
 20
-508.9214361600535
 30
0.0
  0
VERTEX
  5
2A1
330
29F
100
AcDbEntity
  8
Drawing
 62
   250
420
  1842203
370
   100
100
AcDbVertex
100
AcDb2dVertex
 10
584.6944616558369
 20
-501.9214506516813
 30
0.0
  0
SEQEND
  5
2A2
330
29F
100
AcDbEntity
  8
Drawing
 62
   250
420
  1842203
370
   100
  0
POLYLINE
  5
2A3
330
DF
100
AcDbEntity
  8
Drawing
 62
   250
420
  1842203
370
   100
100
AcDb2dPolyline
 66
     1
 10
0.0
 20
0.0
 30
0.0
  0
VERTEX
  5
2A4
330
2A3
100
AcDbEntity
  8
Drawing
 62
   250
420
  1842203
370
   100
100
AcDbVertex
100
AcDb2dVertex
 10
440.6947171868275
 20
-519.9205948572492
 30
0.0
  0
VERTEX
  5
2A5
330
2A3
100
AcDbEntity
  8
Drawing
 62
   250
420
  1842203
370
   100
100
AcDbVertex
100
AcDb2dVertex
 10
447.6946861353385
 20
-519.9205948572492
 30
0.0
  0
SEQEND
  5
2A6
330
2A3
100
AcDbEntity
  8
Drawing
 62
   250
420
  1842203
370
   100
  0
POLYLINE
  5
2A7
330
DF
100
AcDbEntity
  8
Drawing
 62
   250
420
  1842203
370
   100
100
AcDb2dPolyline
 66
     1
 10
0.0
 20
0.0
 30
0.0
  0
VERTEX
  5
2A8
330
2A7
100
AcDbEntity
  8
Drawing
 62
   250
420
  1842203
370
   100
100
AcDbVertex
100
AcDb2dVertex
 10
447.6946861353385
 20
-519.9205948572492
 30
0.0
  0
VERTEX
  5
2A9
330
2A7
100
AcDbEntity
  8
Drawing
 62
   250
420
  1842203
370
   100
100
AcDbVertex
100
AcDb2dVertex
 10
447.6946861353385
 20
-526.9205803656221
 30
0.0
  0
SEQEND
  5
2AA
330
2A7
100
AcDbEntity
  8
Drawing
 62
   250
420
  1842203
370
   100
  0
POLYLINE
  5
2AB
330
DF
100
AcDbEntity
  8
Drawing
 62
   250
420
  1842203
370
   100
100
AcDb2dPolyline
 66
     1
 10
0.0
 20
0.0
 30
0.0
  0
VERTEX
  5
2AC
330
2AB
100
AcDbEntity
  8
Drawing
 62
   250
420
  1842203
370
   100
100
AcDbVertex
100
AcDb2dVertex
 10
447.6946861353385
 20
-526.9205803656221
 30
0.0
  0
VERTEX
  5
2AD
330
2AB
100
AcDbEntity
  8
Drawing
 62
   250
420
  1842203
370
   100
100
AcDbVertex
100
AcDb2dVertex
 10
440.6947171868275
 20
-526.9205803656221
 30
0.0
  0
SEQEND
  5
2AE
330
2AB
100
AcDbEntity
  8
Drawing
 62
   250
420
  1842203
370
   100
  0
POLYLINE
  5
2AF
330
DF
100
AcDbEntity
  8
Drawing
 62
   250
420
  1842203
370
   100
100
AcDb2dPolyline
 66
     1
 10
0.0
 20
0.0
 30
0.0
  0
VERTEX
  5
2B0
330
2AF
100
AcDbEntity
  8
Drawing
 62
   250
420
  1842203
370
   100
100
AcDbVertex
100
AcDb2dVertex
 10
440.6947171868275
 20
-526.9205803656221
 30
0.0
  0
VERTEX
  5
2B1
330
2AF
100
AcDbEntity
  8
Drawing
 62
   250
420
  1842203
370
   100
100
AcDbVertex
100
AcDb2dVertex
 10
440.6947171868275
 20
-519.9205948572492
 30
0.0
  0
SEQEND
  5
2B2
330
2AF
100
AcDbEntity
  8
Drawing
 62
   250
420
  1842203
370
   100
  0
POLYLINE
  5
2B3
330
DF
100
AcDbEntity
  8
Drawing
 62
   250
420
  1842203
370
   100
100
AcDb2dPolyline
 66
     1
 10
0.0
 20
0.0
 30
0.0
  0
VERTEX
  5
2B4
330
2B3
100
AcDbEntity
  8
Drawing
 62
   250
420
  1842203
370
   100
100
AcDbVertex
100
AcDb2dVertex
 10
458.6949543431866
 20
-519.9205948572492
 30
0.0
  0
VERTEX
  5
2B5
330
2B3
100
AcDbEntity
  8
Drawing
 62
   250
420
  1842203
370
   100
100
AcDbVertex
100
AcDb2dVertex
 10
465.6949232916979
 20
-519.9205948572492
 30
0.0
  0
SEQEND
  5
2B6
330
2B3
100
AcDbEntity
  8
Drawing
 62
   250
420
  1842203
370
   100
  0
POLYLINE
  5
2B7
330
DF
100
AcDbEntity
  8
Drawing
 62
   250
420
  1842203
370
   100
100
AcDb2dPolyline
 66
     1
 10
0.0
 20
0.0
 30
0.0
  0
VERTEX
  5
2B8
330
2B7
100
AcDbEntity
  8
Drawing
 62
   250
420
  1842203
370
   100
100
AcDbVertex
100
AcDb2dVertex
 10
465.6949232916979
 20
-519.9205948572492
 30
0.0
  0
VERTEX
  5
2B9
330
2B7
100
AcDbEntity
  8
Drawing
 62
   250
420
  1842203
370
   100
100
AcDbVertex
100
AcDb2dVertex
 10
465.6949232916979
 20
-526.9205803656221
 30
0.0
  0
SEQEND
  5
2BA
330
2B7
100
AcDbEntity
  8
Drawing
 62
   250
420
  1842203
370
   100
  0
POLYLINE
  5
2BB
330
DF
100
AcDbEntity
  8
Drawing
 62
   250
420
  1842203
370
   100
100
AcDb2dPolyline
 66
     1
 10
0.0
 20
0.0
 30
0.0
  0
VERTEX
  5
2BC
330
2BB
100
AcDbEntity
  8
Drawing
 62
   250
420
  1842203
370
   100
100
AcDbVertex
100
AcDb2dVertex
 10
465.6949232916979
 20
-526.9205803656221
 30
0.0
  0
VERTEX
  5
2BD
330
2BB
100
AcDbEntity
  8
Drawing
 62
   250
420
  1842203
370
   100
100
AcDbVertex
100
AcDb2dVertex
 10
458.6949543431866
 20
-526.9205803656221
 30
0.0
  0
SEQEND
  5
2BE
330
2BB
100
AcDbEntity
  8
Drawing
 62
   250
420
  1842203
370
   100
  0
POLYLINE
  5
2BF
330
DF
100
AcDbEntity
  8
Drawing
 62
   250
420
  1842203
370
   100
100
AcDb2dPolyline
 66
     1
 10
0.0
 20
0.0
 30
0.0
  0
VERTEX
  5
2C0
330
2BF
100
AcDbEntity
  8
Drawing
 62
   250
420
  1842203
370
   100
100
AcDbVertex
100
AcDb2dVertex
 10
458.6949543431866
 20
-526.9205803656221
 30
0.0
  0
VERTEX
  5
2C1
330
2BF
100
AcDbEntity
  8
Drawing
 62
   250
420
  1842203
370
   100
100
AcDbVertex
100
AcDb2dVertex
 10
458.6949543431866
 20
-519.9205948572492
 30
0.0
  0
SEQEND
  5
2C2
330
2BF
100
AcDbEntity
  8
Drawing
 62
   250
420
  1842203
370
   100
  0
POLYLINE
  5
2C3
330
DF
100
AcDbEntity
  8
Drawing
 62
   250
420
  1842203
370
   100
100
AcDb2dPolyline
 66
     1
 10
0.0
 20
0.0
 30
0.0
  0
VERTEX
  5
2C4
330
2C3
100
AcDbEntity
  8
Drawing
 62
   250
420
  1842203
370
   100
100
AcDbVertex
100
AcDb2dVertex
 10
476.6941151086139
 20
-519.9205948572492
 30
0.0
  0
VERTEX
  5
2C5
330
2C3
100
AcDbEntity
  8
Drawing
 62
   250
420
  1842203
370
   100
100
AcDbVertex
100
AcDb2dVertex
 10
483.6940840571255
 20
-519.9205948572492
 30
0.0
  0
SEQEND
  5
2C6
330
2C3
100
AcDbEntity
  8
Drawing
 62
   250
420
  1842203
370
   100
  0
POLYLINE
  5
2C7
330
DF
100
AcDbEntity
  8
Drawing
 62
   250
420
  1842203
370
   100
100
AcDb2dPolyline
 66
     1
 10
0.0
 20
0.0
 30
0.0
  0
VERTEX
  5
2C8
330
2C7
100
AcDbEntity
  8
Drawing
 62
   250
420
  1842203
370
   100
100
AcDbVertex
100
AcDb2dVertex
 10
483.6940840571255
 20
-519.9205948572492
 30
0.0
  0
VERTEX
  5
2C9
330
2C7
100
AcDbEntity
  8
Drawing
 62
   250
420
  1842203
370
   100
100
AcDbVertex
100
AcDb2dVertex
 10
483.6940840571255
 20
-526.9205803656221
 30
0.0
  0
SEQEND
  5
2CA
330
2C7
100
AcDbEntity
  8
Drawing
 62
   250
420
  1842203
370
   100
  0
POLYLINE
  5
2CB
330
DF
100
AcDbEntity
  8
Drawing
 62
   250
420
  1842203
370
   100
100
AcDb2dPolyline
 66
     1
 10
0.0
 20
0.0
 30
0.0
  0
VERTEX
  5
2CC
330
2CB
100
AcDbEntity
  8
Drawing
 62
   250
420
  1842203
370
   100
100
AcDbVertex
100
AcDb2dVertex
 10
483.6940840571255
 20
-526.9205803656221
 30
0.0
  0
VERTEX
  5
2CD
330
2CB
100
AcDbEntity
  8
Drawing
 62
   250
420
  1842203
370
   100
100
AcDbVertex
100
AcDb2dVertex
 10
476.6941151086139
 20
-526.9205803656221
 30
0.0
  0
SEQEND
  5
2CE
330
2CB
100
AcDbEntity
  8
Drawing
 62
   250
420
  1842203
370
   100
  0
POLYLINE
  5
2CF
330
DF
100
AcDbEntity
  8
Drawing
 62
   250
420
  1842203
370
   100
100
AcDb2dPolyline
 66
     1
 10
0.0
 20
0.0
 30
0.0
  0
VERTEX
  5
2D0
330
2CF
100
AcDbEntity
  8
Drawing
 62
   250
420
  1842203
370
   100
100
AcDbVertex
100
AcDb2dVertex
 10
476.6941151086139
 20
-526.9205803656221
 30
0.0
  0
VERTEX
  5
2D1
330
2CF
100
AcDbEntity
  8
Drawing
 62
   250
420
  1842203
370
   100
100
AcDbVertex
100
AcDb2dVertex
 10
476.6941151086139
 20
-519.9205948572492
 30
0.0
  0
SEQEND
  5
2D2
330
2CF
100
AcDbEntity
  8
Drawing
 62
   250
420
  1842203
370
   100
  0
POLYLINE
  5
2D3
330
DF
100
AcDbEntity
  8
Drawing
 62
   250
420
  1842203
370
   100
100
AcDb2dPolyline
 66
     1
 10
0.0
 20
0.0
 30
0.0
  0
VERTEX
  5
2D4
330
2D3
100
AcDbEntity
  8
Drawing
 62
   250
420
  1842203
370
   100
100
AcDbVertex
100
AcDb2dVertex
 10
494.694352264973
 20
-519.9205948572492
 30
0.0
  0
VERTEX
  5
2D5
330
2D3
100
AcDbEntity
  8
Drawing
 62
   250
420
  1842203
370
   100
100
AcDbVertex
100
AcDb2dVertex
 10
501.6943212134847
 20
-519.9205948572492
 30
0.0
  0
SEQEND
  5
2D6
330
2D3
100
AcDbEntity
  8
Drawing
 62
   250
420
  1842203
370
   100
  0
POLYLINE
  5
2D7
330
DF
100
AcDbEntity
  8
Drawing
 62
   250
420
  1842203
370
   100
100
AcDb2dPolyline
 66
     1
 10
0.0
 20
0.0
 30
0.0
  0
VERTEX
  5
2D8
330
2D7
100
AcDbEntity
  8
Drawing
 62
   250
420
  1842203
370
   100
100
AcDbVertex
100
AcDb2dVertex
 10
501.6943212134847
 20
-519.9205948572492
 30
0.0
  0
VERTEX
  5
2D9
330
2D7
100
AcDbEntity
  8
Drawing
 62
   250
420
  1842203
370
   100
100
AcDbVertex
100
AcDb2dVertex
 10
501.6943212134847
 20
-526.9205803656221
 30
0.0
  0
SEQEND
  5
2DA
330
2D7
100
AcDbEntity
  8
Drawing
 62
   250
420
  1842203
370
   100
  0
POLYLINE
  5
2DB
330
DF
100
AcDbEntity
  8
Drawing
 62
   250
420
  1842203
370
   100
100
AcDb2dPolyline
 66
     1
 10
0.0
 20
0.0
 30
0.0
  0
VERTEX
  5
2DC
330
2DB
100
AcDbEntity
  8
Drawing
 62
   250
420
  1842203
370
   100
100
AcDbVertex
100
AcDb2dVertex
 10
501.6943212134847
 20
-526.9205803656221
 30
0.0
  0
VERTEX
  5
2DD
330
2DB
100
AcDbEntity
  8
Drawing
 62
   250
420
  1842203
370
   100
100
AcDbVertex
100
AcDb2dVertex
 10
494.694352264973
 20
-526.9205803656221
 30
0.0
  0
SEQEND
  5
2DE
330
2DB
100
AcDbEntity
  8
Drawing
 62
   250
420
  1842203
370
   100
  0
POLYLINE
  5
2DF
330
DF
100
AcDbEntity
  8
Drawing
 62
   250
420
  1842203
370
   100
100
AcDb2dPolyline
 66
     1
 10
0.0
 20
0.0
 30
0.0
  0
VERTEX
  5
2E0
330
2DF
100
AcDbEntity
  8
Drawing
 62
   250
420
  1842203
370
   100
100
AcDbVertex
100
AcDb2dVertex
 10
494.694352264973
 20
-526.9205803656221
 30
0.0
  0
VERTEX
  5
2E1
330
2DF
100
AcDbEntity
  8
Drawing
 62
   250
420
  1842203
370
   100
100
AcDbVertex
100
AcDb2dVertex
 10
494.694352264973
 20
-519.9205948572492
 30
0.0
  0
SEQEND
  5
2E2
330
2DF
100
AcDbEntity
  8
Drawing
 62
   250
420
  1842203
370
   100
  0
POLYLINE
  5
2E3
330
DF
100
AcDbEntity
  8
Drawing
 62
   250
420
  1842203
370
   100
100
AcDb2dPolyline
 66
     1
 10
0.0
 20
0.0
 30
0.0
  0
VERTEX
  5
2E4
330
2E3
100
AcDbEntity
  8
Drawing
 62
   250
420
  1842203
370
   100
100
AcDbVertex
100
AcDb2dVertex
 10
512.6945894213319
 20
-519.9205948572492
 30
0.0
  0
VERTEX
  5
2E5
330
2E3
100
AcDbEntity
  8
Drawing
 62
   250
420
  1842203
370
   100
100
AcDbVertex
100
AcDb2dVertex
 10
519.6945583698435
 20
-519.9205948572492
 30
0.0
  0
SEQEND
  5
2E6
330
2E3
100
AcDbEntity
  8
Drawing
 62
   250
420
  1842203
370
   100
  0
POLYLINE
  5
2E7
330
DF
100
AcDbEntity
  8
Drawing
 62
   250
420
  1842203
370
   100
100
AcDb2dPolyline
 66
     1
 10
0.0
 20
0.0
 30
0.0
  0
VERTEX
  5
2E8
330
2E7
100
AcDbEntity
  8
Drawing
 62
   250
420
  1842203
370
   100
100
AcDbVertex
100
AcDb2dVertex
 10
519.6945583698435
 20
-519.9205948572492
 30
0.0
  0
VERTEX
  5
2E9
330
2E7
100
AcDbEntity
  8
Drawing
 62
   250
420
  1842203
370
   100
100
AcDbVertex
100
AcDb2dVertex
 10
519.6945583698435
 20
-526.9205803656221
 30
0.0
  0
SEQEND
  5
2EA
330
2E7
100
AcDbEntity
  8
Drawing
 62
   250
420
  1842203
370
   100
  0
POLYLINE
  5
2EB
330
DF
100
AcDbEntity
  8
Drawing
 62
   250
420
  1842203
370
   100
100
AcDb2dPolyline
 66
     1
 10
0.0
 20
0.0
 30
0.0
  0
VERTEX
  5
2EC
330
2EB
100
AcDbEntity
  8
Drawing
 62
   250
420
  1842203
370
   100
100
AcDbVertex
100
AcDb2dVertex
 10
519.6945583698435
 20
-526.9205803656221
 30
0.0
  0
VERTEX
  5
2ED
330
2EB
100
AcDbEntity
  8
Drawing
 62
   250
420
  1842203
370
   100
100
AcDbVertex
100
AcDb2dVertex
 10
512.6945894213319
 20
-526.9205803656221
 30
0.0
  0
SEQEND
  5
2EE
330
2EB
100
AcDbEntity
  8
Drawing
 62
   250
420
  1842203
370
   100
  0
POLYLINE
  5
2EF
330
DF
100
AcDbEntity
  8
Drawing
 62
   250
420
  1842203
370
   100
100
AcDb2dPolyline
 66
     1
 10
0.0
 20
0.0
 30
0.0
  0
VERTEX
  5
2F0
330
2EF
100
AcDbEntity
  8
Drawing
 62
   250
420
  1842203
370
   100
100
AcDbVertex
100
AcDb2dVertex
 10
512.6945894213319
 20
-526.9205803656221
 30
0.0
  0
VERTEX
  5
2F1
330
2EF
100
AcDbEntity
  8
Drawing
 62
   250
420
  1842203
370
   100
100
AcDbVertex
100
AcDb2dVertex
 10
512.6945894213319
 20
-519.9205948572492
 30
0.0
  0
SEQEND
  5
2F2
330
2EF
100
AcDbEntity
  8
Drawing
 62
   250
420
  1842203
370
   100
  0
POLYLINE
  5
2F3
330
DF
100
AcDbEntity
  8
Drawing
 62
   250
420
  1842203
370
   100
100
AcDb2dPolyline
 66
     1
 10
0.0
 20
0.0
 30
0.0
  0
VERTEX
  5
2F4
330
2F3
100
AcDbEntity
  8
Drawing
 62
   250
420
  1842203
370
   100
100
AcDbVertex
100
AcDb2dVertex
 10
530.6948265776913
 20
-519.9205948572492
 30
0.0
  0
VERTEX
  5
2F5
330
2F3
100
AcDbEntity
  8
Drawing
 62
   250
420
  1842203
370
   100
100
AcDbVertex
100
AcDb2dVertex
 10
537.6947955262029
 20
-519.9205948572492
 30
0.0
  0
SEQEND
  5
2F6
330
2F3
100
AcDbEntity
  8
Drawing
 62
   250
420
  1842203
370
   100
  0
POLYLINE
  5
2F7
330
DF
100
AcDbEntity
  8
Drawing
 62
   250
420
  1842203
370
   100
100
AcDb2dPolyline
 66
     1
 10
0.0
 20
0.0
 30
0.0
  0
VERTEX
  5
2F8
330
2F7
100
AcDbEntity
  8
Drawing
 62
   250
420
  1842203
370
   100
100
AcDbVertex
100
AcDb2dVertex
 10
537.6947955262029
 20
-519.9205948572492
 30
0.0
  0
VERTEX
  5
2F9
330
2F7
100
AcDbEntity
  8
Drawing
 62
   250
420
  1842203
370
   100
100
AcDbVertex
100
AcDb2dVertex
 10
537.6947955262029
 20
-526.9205803656221
 30
0.0
  0
SEQEND
  5
2FA
330
2F7
100
AcDbEntity
  8
Drawing
 62
   250
420
  1842203
370
   100
  0
POLYLINE
  5
2FB
330
DF
100
AcDbEntity
  8
Drawing
 62
   250
420
  1842203
370
   100
100
AcDb2dPolyline
 66
     1
 10
0.0
 20
0.0
 30
0.0
  0
VERTEX
  5
2FC
330
2FB
100
AcDbEntity
  8
Drawing
 62
   250
420
  1842203
370
   100
100
AcDbVertex
100
AcDb2dVertex
 10
537.6947955262029
 20
-526.9205803656221
 30
0.0
  0
VERTEX
  5
2FD
330
2FB
100
AcDbEntity
  8
Drawing
 62
   250
420
  1842203
370
   100
100
AcDbVertex
100
AcDb2dVertex
 10
530.6948265776913
 20
-526.9205803656221
 30
0.0
  0
SEQEND
  5
2FE
330
2FB
100
AcDbEntity
  8
Drawing
 62
   250
420
  1842203
370
   100
  0
POLYLINE
  5
2FF
330
DF
100
AcDbEntity
  8
Drawing
 62
   250
420
  1842203
370
   100
100
AcDb2dPolyline
 66
     1
 10
0.0
 20
0.0
 30
0.0
  0
VERTEX
  5
300
330
2FF
100
AcDbEntity
  8
Drawing
 62
   250
420
  1842203
370
   100
100
AcDbVertex
100
AcDb2dVertex
 10
530.6948265776913
 20
-526.9205803656221
 30
0.0
  0
VERTEX
  5
301
330
2FF
100
AcDbEntity
  8
Drawing
 62
   250
420
  1842203
370
   100
100
AcDbVertex
100
AcDb2dVertex
 10
530.6948265776913
 20
-519.9205948572492
 30
0.0
  0
SEQEND
  5
302
330
2FF
100
AcDbEntity
  8
Drawing
 62
   250
420
  1842203
370
   100
  0
POLYLINE
  5
303
330
DF
100
AcDbEntity
  8
Drawing
 62
   250
420
  1842203
370
   100
100
AcDb2dPolyline
 66
     1
 10
0.0
 20
0.0
 30
0.0
  0
VERTEX
  5
304
330
303
100
AcDbEntity
  8
Drawing
 62
   250
420
  1842203
370
   100
100
AcDbVertex
100
AcDb2dVertex
 10
548.693970783258
 20
-519.9205948572492
 30
0.0
  0
VERTEX
  5
305
330
303
100
AcDbEntity
  8
Drawing
 62
   250
420
  1842203
370
   100
100
AcDbVertex
100
AcDb2dVertex
 10
555.6939562916302
 20
-519.9205948572492
 30
0.0
  0
SEQEND
  5
306
330
303
100
AcDbEntity
  8
Drawing
 62
   250
420
  1842203
370
   100
  0
POLYLINE
  5
307
330
DF
100
AcDbEntity
  8
Drawing
 62
   250
420
  1842203
370
   100
100
AcDb2dPolyline
 66
     1
 10
0.0
 20
0.0
 30
0.0
  0
VERTEX
  5
308
330
307
100
AcDbEntity
  8
Drawing
 62
   250
420
  1842203
370
   100
100
AcDbVertex
100
AcDb2dVertex
 10
555.6939562916302
 20
-519.9205948572492
 30
0.0
  0
VERTEX
  5
309
330
307
100
AcDbEntity
  8
Drawing
 62
   250
420
  1842203
370
   100
100
AcDbVertex
100
AcDb2dVertex
 10
555.6939562916302
 20
-526.9205803656221
 30
0.0
  0
SEQEND
  5
30A
330
307
100
AcDbEntity
  8
Drawing
 62
   250
420
  1842203
370
   100
  0
POLYLINE
  5
30B
330
DF
100
AcDbEntity
  8
Drawing
 62
   250
420
  1842203
370
   100
100
AcDb2dPolyline
 66
     1
 10
0.0
 20
0.0
 30
0.0
  0
VERTEX
  5
30C
330
30B
100
AcDbEntity
  8
Drawing
 62
   250
420
  1842203
370
   100
100
AcDbVertex
100
AcDb2dVertex
 10
555.6939562916302
 20
-526.9205803656221
 30
0.0
  0
VERTEX
  5
30D
330
30B
100
AcDbEntity
  8
Drawing
 62
   250
420
  1842203
370
   100
100
AcDbVertex
100
AcDb2dVertex
 10
548.693970783258
 20
-526.9205803656221
 30
0.0
  0
SEQEND
  5
30E
330
30B
100
AcDbEntity
  8
Drawing
 62
   250
420
  1842203
370
   100
  0
POLYLINE
  5
30F
330
DF
100
AcDbEntity
  8
Drawing
 62
   250
420
  1842203
370
   100
100
AcDb2dPolyline
 66
     1
 10
0.0
 20
0.0
 30
0.0
  0
VERTEX
  5
310
330
30F
100
AcDbEntity
  8
Drawing
 62
   250
420
  1842203
370
   100
100
AcDbVertex
100
AcDb2dVertex
 10
548.693970783258
 20
-526.9205803656221
 30
0.0
  0
VERTEX
  5
311
330
30F
100
AcDbEntity
  8
Drawing
 62
   250
420
  1842203
370
   100
100
AcDbVertex
100
AcDb2dVertex
 10
548.693970783258
 20
-519.9205948572492
 30
0.0
  0
SEQEND
  5
312
330
30F
100
AcDbEntity
  8
Drawing
 62
   250
420
  1842203
370
   100
  0
POLYLINE
  5
313
330
DF
100
AcDbEntity
  8
Drawing
 62
   250
420
  1842203
370
   100
100
AcDb2dPolyline
 66
     1
 10
0.0
 20
0.0
 30
0.0
  0
VERTEX
  5
314
330
313
100
AcDbEntity
  8
Drawing
 62
   250
420
  1842203
370
   100
100
AcDbVertex
100
AcDb2dVertex
 10
566.6942244994774
 20
-519.9205948572492
 30
0.0
  0
VERTEX
  5
315
330
313
100
AcDbEntity
  8
Drawing
 62
   250
420
  1842203
370
   100
100
AcDbVertex
100
AcDb2dVertex
 10
573.694193447989
 20
-519.9205948572492
 30
0.0
  0
SEQEND
  5
316
330
313
100
AcDbEntity
  8
Drawing
 62
   250
420
  1842203
370
   100
  0
POLYLINE
  5
317
330
DF
100
AcDbEntity
  8
Drawing
 62
   250
420
  1842203
370
   100
100
AcDb2dPolyline
 66
     1
 10
0.0
 20
0.0
 30
0.0
  0
VERTEX
  5
318
330
317
100
AcDbEntity
  8
Drawing
 62
   250
420
  1842203
370
   100
100
AcDbVertex
100
AcDb2dVertex
 10
573.694193447989
 20
-519.9205948572492
 30
0.0
  0
VERTEX
  5
319
330
317
100
AcDbEntity
  8
Drawing
 62
   250
420
  1842203
370
   100
100
AcDbVertex
100
AcDb2dVertex
 10
573.694193447989
 20
-526.9205803656221
 30
0.0
  0
SEQEND
  5
31A
330
317
100
AcDbEntity
  8
Drawing
 62
   250
420
  1842203
370
   100
  0
POLYLINE
  5
31B
330
DF
100
AcDbEntity
  8
Drawing
 62
   250
420
  1842203
370
   100
100
AcDb2dPolyline
 66
     1
 10
0.0
 20
0.0
 30
0.0
  0
VERTEX
  5
31C
330
31B
100
AcDbEntity
  8
Drawing
 62
   250
420
  1842203
370
   100
100
AcDbVertex
100
AcDb2dVertex
 10
573.694193447989
 20
-526.9205803656221
 30
0.0
  0
VERTEX
  5
31D
330
31B
100
AcDbEntity
  8
Drawing
 62
   250
420
  1842203
370
   100
100
AcDbVertex
100
AcDb2dVertex
 10
566.6942244994774
 20
-526.9205803656221
 30
0.0
  0
SEQEND
  5
31E
330
31B
100
AcDbEntity
  8
Drawing
 62
   250
420
  1842203
370
   100
  0
POLYLINE
  5
31F
330
DF
100
AcDbEntity
  8
Drawing
 62
   250
420
  1842203
370
   100
100
AcDb2dPolyline
 66
     1
 10
0.0
 20
0.0
 30
0.0
  0
VERTEX
  5
320
330
31F
100
AcDbEntity
  8
Drawing
 62
   250
420
  1842203
370
   100
100
AcDbVertex
100
AcDb2dVertex
 10
566.6942244994774
 20
-526.9205803656221
 30
0.0
  0
VERTEX
  5
321
330
31F
100
AcDbEntity
  8
Drawing
 62
   250
420
  1842203
370
   100
100
AcDbVertex
100
AcDb2dVertex
 10
566.6942244994774
 20
-519.9205948572492
 30
0.0
  0
SEQEND
  5
322
330
31F
100
AcDbEntity
  8
Drawing
 62
   250
420
  1842203
370
   100
  0
POLYLINE
  5
323
330
DF
100
AcDbEntity
  8
Drawing
 62
   250
420
  1842203
370
   100
100
AcDb2dPolyline
 66
     1
 10
0.0
 20
0.0
 30
0.0
  0
VERTEX
  5
324
330
323
100
AcDbEntity
  8
Drawing
 62
   250
420
  1842203
370
   100
100
AcDbVertex
100
AcDb2dVertex
 10
584.6944616558369
 20
-519.9205948572492
 30
0.0
  0
VERTEX
  5
325
330
323
100
AcDbEntity
  8
Drawing
 62
   250
420
  1842203
370
   100
100
AcDbVertex
100
AcDb2dVertex
 10
591.6944140444879
 20
-519.9205948572492
 30
0.0
  0
SEQEND
  5
326
330
323
100
AcDbEntity
  8
Drawing
 62
   250
420
  1842203
370
   100
  0
POLYLINE
  5
327
330
DF
100
AcDbEntity
  8
Drawing
 62
   250
420
  1842203
370
   100
100
AcDb2dPolyline
 66
     1
 10
0.0
 20
0.0
 30
0.0
  0
VERTEX
  5
328
330
327
100
AcDbEntity
  8
Drawing
 62
   250
420
  1842203
370
   100
100
AcDbVertex
100
AcDb2dVertex
 10
591.6944140444879
 20
-519.9205948572492
 30
0.0
  0
VERTEX
  5
329
330
327
100
AcDbEntity
  8
Drawing
 62
   250
420
  1842203
370
   100
100
AcDbVertex
100
AcDb2dVertex
 10
591.6944140444879
 20
-526.9205803656221
 30
0.0
  0
SEQEND
  5
32A
330
327
100
AcDbEntity
  8
Drawing
 62
   250
420
  1842203
370
   100
  0
POLYLINE
  5
32B
330
DF
100
AcDbEntity
  8
Drawing
 62
   250
420
  1842203
370
   100
100
AcDb2dPolyline
 66
     1
 10
0.0
 20
0.0
 30
0.0
  0
VERTEX
  5
32C
330
32B
100
AcDbEntity
  8
Drawing
 62
   250
420
  1842203
370
   100
100
AcDbVertex
100
AcDb2dVertex
 10
591.6944140444879
 20
-526.9205803656221
 30
0.0
  0
VERTEX
  5
32D
330
32B
100
AcDbEntity
  8
Drawing
 62
   250
420
  1842203
370
   100
100
AcDbVertex
100
AcDb2dVertex
 10
584.6944616558369
 20
-526.9205803656221
 30
0.0
  0
SEQEND
  5
32E
330
32B
100
AcDbEntity
  8
Drawing
 62
   250
420
  1842203
370
   100
  0
POLYLINE
  5
32F
330
DF
100
AcDbEntity
  8
Drawing
 62
   250
420
  1842203
370
   100
100
AcDb2dPolyline
 66
     1
 10
0.0
 20
0.0
 30
0.0
  0
VERTEX
  5
330
330
32F
100
AcDbEntity
  8
Drawing
 62
   250
420
  1842203
370
   100
100
AcDbVertex
100
AcDb2dVertex
 10
584.6944616558369
 20
-526.9205803656221
 30
0.0
  0
VERTEX
  5
331
330
32F
100
AcDbEntity
  8
Drawing
 62
   250
420
  1842203
370
   100
100
AcDbVertex
100
AcDb2dVertex
 10
584.6944616558369
 20
-519.9205948572492
 30
0.0
  0
SEQEND
  5
332
330
32F
100
AcDbEntity
  8
Drawing
 62
   250
420
  1842203
370
   100
  0
POLYLINE
  5
333
330
DF
100
AcDbEntity
  8
Drawing
 62
   250
420
  1842203
370
   100
100
AcDb2dPolyline
 66
     1
 10
0.0
 20
0.0
 30
0.0
  0
VERTEX
  5
334
330
333
100
AcDbEntity
  8
Drawing
 62
   250
420
  1842203
370
   100
100
AcDbVertex
100
AcDb2dVertex
 10
440.6947171868275
 20
-537.9208320136099
 30
0.0
  0
VERTEX
  5
335
330
333
100
AcDbEntity
  8
Drawing
 62
   250
420
  1842203
370
   100
100
AcDbVertex
100
AcDb2dVertex
 10
447.6946861353385
 20
-537.9208320136099
 30
0.0
  0
SEQEND
  5
336
330
333
100
AcDbEntity
  8
Drawing
 62
   250
420
  1842203
370
   100
  0
POLYLINE
  5
337
330
DF
100
AcDbEntity
  8
Drawing
 62
   250
420
  1842203
370
   100
100
AcDb2dPolyline
 66
     1
 10
0.0
 20
0.0
 30
0.0
  0
VERTEX
  5
338
330
337
100
AcDbEntity
  8
Drawing
 62
   250
420
  1842203
370
   100
100
AcDbVertex
100
AcDb2dVertex
 10
447.6946861353385
 20
-537.9208320136099
 30
0.0
  0
VERTEX
  5
339
330
337
100
AcDbEntity
  8
Drawing
 62
   250
420
  1842203
370
   100
100
AcDbVertex
100
AcDb2dVertex
 10
447.6946861353385
 20
-544.920817521979
 30
0.0
  0
SEQEND
  5
33A
330
337
100
AcDbEntity
  8
Drawing
 62
   250
420
  1842203
370
   100
  0
POLYLINE
  5
33B
330
DF
100
AcDbEntity
  8
Drawing
 62
   250
420
  1842203
370
   100
100
AcDb2dPolyline
 66
     1
 10
0.0
 20
0.0
 30
0.0
  0
VERTEX
  5
33C
330
33B
100
AcDbEntity
  8
Drawing
 62
   250
420
  1842203
370
   100
100
AcDbVertex
100
AcDb2dVertex
 10
447.6946861353385
 20
-544.920817521979
 30
0.0
  0
VERTEX
  5
33D
330
33B
100
AcDbEntity
  8
Drawing
 62
   250
420
  1842203
370
   100
100
AcDbVertex
100
AcDb2dVertex
 10
440.6947171868275
 20
-544.920817521979
 30
0.0
  0
SEQEND
  5
33E
330
33B
100
AcDbEntity
  8
Drawing
 62
   250
420
  1842203
370
   100
  0
POLYLINE
  5
33F
330
DF
100
AcDbEntity
  8
Drawing
 62
   250
420
  1842203
370
   100
100
AcDb2dPolyline
 66
     1
 10
0.0
 20
0.0
 30
0.0
  0
VERTEX
  5
340
330
33F
100
AcDbEntity
  8
Drawing
 62
   250
420
  1842203
370
   100
100
AcDbVertex
100
AcDb2dVertex
 10
440.6947171868275
 20
-544.920817521979
 30
0.0
  0
VERTEX
  5
341
330
33F
100
AcDbEntity
  8
Drawing
 62
   250
420
  1842203
370
   100
100
AcDbVertex
100
AcDb2dVertex
 10
440.6947171868275
 20
-537.9208320136099
 30
0.0
  0
SEQEND
  5
342
330
33F
100
AcDbEntity
  8
Drawing
 62
   250
420
  1842203
370
   100
  0
POLYLINE
  5
343
330
DF
100
AcDbEntity
  8
Drawing
 62
   250
420
  1842203
370
   100
100
AcDb2dPolyline
 66
     1
 10
0.0
 20
0.0
 30
0.0
  0
VERTEX
  5
344
330
343
100
AcDbEntity
  8
Drawing
 62
   250
420
  1842203
370
   100
100
AcDbVertex
100
AcDb2dVertex
 10
458.6949543431866
 20
-537.9208320136099
 30
0.0
  0
VERTEX
  5
345
330
343
100
AcDbEntity
  8
Drawing
 62
   250
420
  1842203
370
   100
100
AcDbVertex
100
AcDb2dVertex
 10
465.6949232916979
 20
-537.9208320136099
 30
0.0
  0
SEQEND
  5
346
330
343
100
AcDbEntity
  8
Drawing
 62
   250
420
  1842203
370
   100
  0
POLYLINE
  5
347
330
DF
100
AcDbEntity
  8
Drawing
 62
   250
420
  1842203
370
   100
100
AcDb2dPolyline
 66
     1
 10
0.0
 20
0.0
 30
0.0
  0
VERTEX
  5
348
330
347
100
AcDbEntity
  8
Drawing
 62
   250
420
  1842203
370
   100
100
AcDbVertex
100
AcDb2dVertex
 10
465.6949232916979
 20
-537.9208320136099
 30
0.0
  0
VERTEX
  5
349
330
347
100
AcDbEntity
  8
Drawing
 62
   250
420
  1842203
370
   100
100
AcDbVertex
100
AcDb2dVertex
 10
465.6949232916979
 20
-544.920817521979
 30
0.0
  0
SEQEND
  5
34A
330
347
100
AcDbEntity
  8
Drawing
 62
   250
420
  1842203
370
   100
  0
POLYLINE
  5
34B
330
DF
100
AcDbEntity
  8
Drawing
 62
   250
420
  1842203
370
   100
100
AcDb2dPolyline
 66
     1
 10
0.0
 20
0.0
 30
0.0
  0
VERTEX
  5
34C
330
34B
100
AcDbEntity
  8
Drawing
 62
   250
420
  1842203
370
   100
100
AcDbVertex
100
AcDb2dVertex
 10
465.6949232916979
 20
-544.920817521979
 30
0.0
  0
VERTEX
  5
34D
330
34B
100
AcDbEntity
  8
Drawing
 62
   250
420
  1842203
370
   100
100
AcDbVertex
100
AcDb2dVertex
 10
458.6949543431866
 20
-544.920817521979
 30
0.0
  0
SEQEND
  5
34E
330
34B
100
AcDbEntity
  8
Drawing
 62
   250
420
  1842203
370
   100
  0
POLYLINE
  5
34F
330
DF
100
AcDbEntity
  8
Drawing
 62
   250
420
  1842203
370
   100
100
AcDb2dPolyline
 66
     1
 10
0.0
 20
0.0
 30
0.0
  0
VERTEX
  5
350
330
34F
100
AcDbEntity
  8
Drawing
 62
   250
420
  1842203
370
   100
100
AcDbVertex
100
AcDb2dVertex
 10
458.6949543431866
 20
-544.920817521979
 30
0.0
  0
VERTEX
  5
351
330
34F
100
AcDbEntity
  8
Drawing
 62
   250
420
  1842203
370
   100
100
AcDbVertex
100
AcDb2dVertex
 10
458.6949543431866
 20
-537.9208320136099
 30
0.0
  0
SEQEND
  5
352
330
34F
100
AcDbEntity
  8
Drawing
 62
   250
420
  1842203
370
   100
  0
POLYLINE
  5
353
330
DF
100
AcDbEntity
  8
Drawing
 62
   250
420
  1842203
370
   100
100
AcDb2dPolyline
 66
     1
 10
0.0
 20
0.0
 30
0.0
  0
VERTEX
  5
354
330
353
100
AcDbEntity
  8
Drawing
 62
   250
420
  1842203
370
   100
100
AcDbVertex
100
AcDb2dVertex
 10
476.6941151086139
 20
-537.9208320136099
 30
0.0
  0
VERTEX
  5
355
330
353
100
AcDbEntity
  8
Drawing
 62
   250
420
  1842203
370
   100
100
AcDbVertex
100
AcDb2dVertex
 10
483.6940840571255
 20
-537.9208320136099
 30
0.0
  0
SEQEND
  5
356
330
353
100
AcDbEntity
  8
Drawing
 62
   250
420
  1842203
370
   100
  0
POLYLINE
  5
357
330
DF
100
AcDbEntity
  8
Drawing
 62
   250
420
  1842203
370
   100
100
AcDb2dPolyline
 66
     1
 10
0.0
 20
0.0
 30
0.0
  0
VERTEX
  5
358
330
357
100
AcDbEntity
  8
Drawing
 62
   250
420
  1842203
370
   100
100
AcDbVertex
100
AcDb2dVertex
 10
483.6940840571255
 20
-537.9208320136099
 30
0.0
  0
VERTEX
  5
359
330
357
100
AcDbEntity
  8
Drawing
 62
   250
420
  1842203
370
   100
100
AcDbVertex
100
AcDb2dVertex
 10
483.6940840571255
 20
-544.920817521979
 30
0.0
  0
SEQEND
  5
35A
330
357
100
AcDbEntity
  8
Drawing
 62
   250
420
  1842203
370
   100
  0
POLYLINE
  5
35B
330
DF
100
AcDbEntity
  8
Drawing
 62
   250
420
  1842203
370
   100
100
AcDb2dPolyline
 66
     1
 10
0.0
 20
0.0
 30
0.0
  0
VERTEX
  5
35C
330
35B
100
AcDbEntity
  8
Drawing
 62
   250
420
  1842203
370
   100
100
AcDbVertex
100
AcDb2dVertex
 10
483.6940840571255
 20
-544.920817521979
 30
0.0
  0
VERTEX
  5
35D
330
35B
100
AcDbEntity
  8
Drawing
 62
   250
420
  1842203
370
   100
100
AcDbVertex
100
AcDb2dVertex
 10
476.6941151086139
 20
-544.920817521979
 30
0.0
  0
SEQEND
  5
35E
330
35B
100
AcDbEntity
  8
Drawing
 62
   250
420
  1842203
370
   100
  0
POLYLINE
  5
35F
330
DF
100
AcDbEntity
  8
Drawing
 62
   250
420
  1842203
370
   100
100
AcDb2dPolyline
 66
     1
 10
0.0
 20
0.0
 30
0.0
  0
VERTEX
  5
360
330
35F
100
AcDbEntity
  8
Drawing
 62
   250
420
  1842203
370
   100
100
AcDbVertex
100
AcDb2dVertex
 10
476.6941151086139
 20
-544.920817521979
 30
0.0
  0
VERTEX
  5
361
330
35F
100
AcDbEntity
  8
Drawing
 62
   250
420
  1842203
370
   100
100
AcDbVertex
100
AcDb2dVertex
 10
476.6941151086139
 20
-537.9208320136099
 30
0.0
  0
SEQEND
  5
362
330
35F
100
AcDbEntity
  8
Drawing
 62
   250
420
  1842203
370
   100
  0
POLYLINE
  5
363
330
DF
100
AcDbEntity
  8
Drawing
 62
   250
420
  1842203
370
   100
100
AcDb2dPolyline
 66
     1
 10
0.0
 20
0.0
 30
0.0
  0
VERTEX
  5
364
330
363
100
AcDbEntity
  8
Drawing
 62
   250
420
  1842203
370
   100
100
AcDbVertex
100
AcDb2dVertex
 10
494.694352264973
 20
-537.9208320136099
 30
0.0
  0
VERTEX
  5
365
330
363
100
AcDbEntity
  8
Drawing
 62
   250
420
  1842203
370
   100
100
AcDbVertex
100
AcDb2dVertex
 10
501.6943212134847
 20
-537.9208320136099
 30
0.0
  0
SEQEND
  5
366
330
363
100
AcDbEntity
  8
Drawing
 62
   250
420
  1842203
370
   100
  0
POLYLINE
  5
367
330
DF
100
AcDbEntity
  8
Drawing
 62
   250
420
  1842203
370
   100
100
AcDb2dPolyline
 66
     1
 10
0.0
 20
0.0
 30
0.0
  0
VERTEX
  5
368
330
367
100
AcDbEntity
  8
Drawing
 62
   250
420
  1842203
370
   100
100
AcDbVertex
100
AcDb2dVertex
 10
501.6943212134847
 20
-537.9208320136099
 30
0.0
  0
VERTEX
  5
369
330
367
100
AcDbEntity
  8
Drawing
 62
   250
420
  1842203
370
   100
100
AcDbVertex
100
AcDb2dVertex
 10
501.6943212134847
 20
-544.920817521979
 30
0.0
  0
SEQEND
  5
36A
330
367
100
AcDbEntity
  8
Drawing
 62
   250
420
  1842203
370
   100
  0
POLYLINE
  5
36B
330
DF
100
AcDbEntity
  8
Drawing
 62
   250
420
  1842203
370
   100
100
AcDb2dPolyline
 66
     1
 10
0.0
 20
0.0
 30
0.0
  0
VERTEX
  5
36C
330
36B
100
AcDbEntity
  8
Drawing
 62
   250
420
  1842203
370
   100
100
AcDbVertex
100
AcDb2dVertex
 10
501.6943212134847
 20
-544.920817521979
 30
0.0
  0
VERTEX
  5
36D
330
36B
100
AcDbEntity
  8
Drawing
 62
   250
420
  1842203
370
   100
100
AcDbVertex
100
AcDb2dVertex
 10
494.694352264973
 20
-544.920817521979
 30
0.0
  0
SEQEND
  5
36E
330
36B
100
AcDbEntity
  8
Drawing
 62
   250
420
  1842203
370
   100
  0
POLYLINE
  5
36F
330
DF
100
AcDbEntity
  8
Drawing
 62
   250
420
  1842203
370
   100
100
AcDb2dPolyline
 66
     1
 10
0.0
 20
0.0
 30
0.0
  0
VERTEX
  5
370
330
36F
100
AcDbEntity
  8
Drawing
 62
   250
420
  1842203
370
   100
100
AcDbVertex
100
AcDb2dVertex
 10
494.694352264973
 20
-544.920817521979
 30
0.0
  0
VERTEX
  5
371
330
36F
100
AcDbEntity
  8
Drawing
 62
   250
420
  1842203
370
   100
100
AcDbVertex
100
AcDb2dVertex
 10
494.694352264973
 20
-537.9208320136099
 30
0.0
  0
SEQEND
  5
372
330
36F
100
AcDbEntity
  8
Drawing
 62
   250
420
  1842203
370
   100
  0
POLYLINE
  5
373
330
DF
100
AcDbEntity
  8
Drawing
 62
   250
420
  1842203
370
   100
100
AcDb2dPolyline
 66
     1
 10
0.0
 20
0.0
 30
0.0
  0
VERTEX
  5
374
330
373
100
AcDbEntity
  8
Drawing
 62
   250
420
  1842203
370
   100
100
AcDbVertex
100
AcDb2dVertex
 10
512.6945894213319
 20
-537.9208320136099
 30
0.0
  0
VERTEX
  5
375
330
373
100
AcDbEntity
  8
Drawing
 62
   250
420
  1842203
370
   100
100
AcDbVertex
100
AcDb2dVertex
 10
519.6945583698435
 20
-537.9208320136099
 30
0.0
  0
SEQEND
  5
376
330
373
100
AcDbEntity
  8
Drawing
 62
   250
420
  1842203
370
   100
  0
POLYLINE
  5
377
330
DF
100
AcDbEntity
  8
Drawing
 62
   250
420
  1842203
370
   100
100
AcDb2dPolyline
 66
     1
 10
0.0
 20
0.0
 30
0.0
  0
VERTEX
  5
378
330
377
100
AcDbEntity
  8
Drawing
 62
   250
420
  1842203
370
   100
100
AcDbVertex
100
AcDb2dVertex
 10
519.6945583698435
 20
-537.9208320136099
 30
0.0
  0
VERTEX
  5
379
330
377
100
AcDbEntity
  8
Drawing
 62
   250
420
  1842203
370
   100
100
AcDbVertex
100
AcDb2dVertex
 10
519.6945583698435
 20
-544.920817521979
 30
0.0
  0
SEQEND
  5
37A
330
377
100
AcDbEntity
  8
Drawing
 62
   250
420
  1842203
370
   100
  0
POLYLINE
  5
37B
330
DF
100
AcDbEntity
  8
Drawing
 62
   250
420
  1842203
370
   100
100
AcDb2dPolyline
 66
     1
 10
0.0
 20
0.0
 30
0.0
  0
VERTEX
  5
37C
330
37B
100
AcDbEntity
  8
Drawing
 62
   250
420
  1842203
370
   100
100
AcDbVertex
100
AcDb2dVertex
 10
519.6945583698435
 20
-544.920817521979
 30
0.0
  0
VERTEX
  5
37D
330
37B
100
AcDbEntity
  8
Drawing
 62
   250
420
  1842203
370
   100
100
AcDbVertex
100
AcDb2dVertex
 10
512.6945894213319
 20
-544.920817521979
 30
0.0
  0
SEQEND
  5
37E
330
37B
100
AcDbEntity
  8
Drawing
 62
   250
420
  1842203
370
   100
  0
POLYLINE
  5
37F
330
DF
100
AcDbEntity
  8
Drawing
 62
   250
420
  1842203
370
   100
100
AcDb2dPolyline
 66
     1
 10
0.0
 20
0.0
 30
0.0
  0
VERTEX
  5
380
330
37F
100
AcDbEntity
  8
Drawing
 62
   250
420
  1842203
370
   100
100
AcDbVertex
100
AcDb2dVertex
 10
512.6945894213319
 20
-544.920817521979
 30
0.0
  0
VERTEX
  5
381
330
37F
100
AcDbEntity
  8
Drawing
 62
   250
420
  1842203
370
   100
100
AcDbVertex
100
AcDb2dVertex
 10
512.6945894213319
 20
-537.9208320136099
 30
0.0
  0
SEQEND
  5
382
330
37F
100
AcDbEntity
  8
Drawing
 62
   250
420
  1842203
370
   100
  0
POLYLINE
  5
383
330
DF
100
AcDbEntity
  8
Drawing
 62
   250
420
  1842203
370
   100
100
AcDb2dPolyline
 66
     1
 10
0.0
 20
0.0
 30
0.0
  0
VERTEX
  5
384
330
383
100
AcDbEntity
  8
Drawing
 62
   250
420
  1842203
370
   100
100
AcDbVertex
100
AcDb2dVertex
 10
530.6948265776913
 20
-537.9208320136099
 30
0.0
  0
VERTEX
  5
385
330
383
100
AcDbEntity
  8
Drawing
 62
   250
420
  1842203
370
   100
100
AcDbVertex
100
AcDb2dVertex
 10
537.6947955262029
 20
-537.9208320136099
 30
0.0
  0
SEQEND
  5
386
330
383
100
AcDbEntity
  8
Drawing
 62
   250
420
  1842203
370
   100
  0
POLYLINE
  5
387
330
DF
100
AcDbEntity
  8
Drawing
 62
   250
420
  1842203
370
   100
100
AcDb2dPolyline
 66
     1
 10
0.0
 20
0.0
 30
0.0
  0
VERTEX
  5
388
330
387
100
AcDbEntity
  8
Drawing
 62
   250
420
  1842203
370
   100
100
AcDbVertex
100
AcDb2dVertex
 10
537.6947955262029
 20
-537.9208320136099
 30
0.0
  0
VERTEX
  5
389
330
387
100
AcDbEntity
  8
Drawing
 62
   250
420
  1842203
370
   100
100
AcDbVertex
100
AcDb2dVertex
 10
537.6947955262029
 20
-544.920817521979
 30
0.0
  0
SEQEND
  5
38A
330
387
100
AcDbEntity
  8
Drawing
 62
   250
420
  1842203
370
   100
  0
POLYLINE
  5
38B
330
DF
100
AcDbEntity
  8
Drawing
 62
   250
420
  1842203
370
   100
100
AcDb2dPolyline
 66
     1
 10
0.0
 20
0.0
 30
0.0
  0
VERTEX
  5
38C
330
38B
100
AcDbEntity
  8
Drawing
 62
   250
420
  1842203
370
   100
100
AcDbVertex
100
AcDb2dVertex
 10
537.6947955262029
 20
-544.920817521979
 30
0.0
  0
VERTEX
  5
38D
330
38B
100
AcDbEntity
  8
Drawing
 62
   250
420
  1842203
370
   100
100
AcDbVertex
100
AcDb2dVertex
 10
530.6948265776913
 20
-544.920817521979
 30
0.0
  0
SEQEND
  5
38E
330
38B
100
AcDbEntity
  8
Drawing
 62
   250
420
  1842203
370
   100
  0
POLYLINE
  5
38F
330
DF
100
AcDbEntity
  8
Drawing
 62
   250
420
  1842203
370
   100
100
AcDb2dPolyline
 66
     1
 10
0.0
 20
0.0
 30
0.0
  0
VERTEX
  5
390
330
38F
100
AcDbEntity
  8
Drawing
 62
   250
420
  1842203
370
   100
100
AcDbVertex
100
AcDb2dVertex
 10
530.6948265776913
 20
-544.920817521979
 30
0.0
  0
VERTEX
  5
391
330
38F
100
AcDbEntity
  8
Drawing
 62
   250
420
  1842203
370
   100
100
AcDbVertex
100
AcDb2dVertex
 10
530.6948265776913
 20
-537.9208320136099
 30
0.0
  0
SEQEND
  5
392
330
38F
100
AcDbEntity
  8
Drawing
 62
   250
420
  1842203
370
   100
  0
POLYLINE
  5
393
330
DF
100
AcDbEntity
  8
Drawing
 62
   250
420
  1842203
370
   100
100
AcDb2dPolyline
 66
     1
 10
0.0
 20
0.0
 30
0.0
  0
VERTEX
  5
394
330
393
100
AcDbEntity
  8
Drawing
 62
   250
420
  1842203
370
   100
100
AcDbVertex
100
AcDb2dVertex
 10
548.693970783258
 20
-537.9208320136099
 30
0.0
  0
VERTEX
  5
395
330
393
100
AcDbEntity
  8
Drawing
 62
   250
420
  1842203
370
   100
100
AcDbVertex
100
AcDb2dVertex
 10
555.6939562916302
 20
-537.9208320136099
 30
0.0
  0
SEQEND
  5
396
330
393
100
AcDbEntity
  8
Drawing
 62
   250
420
  1842203
370
   100
  0
POLYLINE
  5
397
330
DF
100
AcDbEntity
  8
Drawing
 62
   250
420
  1842203
370
   100
100
AcDb2dPolyline
 66
     1
 10
0.0
 20
0.0
 30
0.0
  0
VERTEX
  5
398
330
397
100
AcDbEntity
  8
Drawing
 62
   250
420
  1842203
370
   100
100
AcDbVertex
100
AcDb2dVertex
 10
555.6939562916302
 20
-537.9208320136099
 30
0.0
  0
VERTEX
  5
399
330
397
100
AcDbEntity
  8
Drawing
 62
   250
420
  1842203
370
   100
100
AcDbVertex
100
AcDb2dVertex
 10
555.6939562916302
 20
-544.920817521979
 30
0.0
  0
SEQEND
  5
39A
330
397
100
AcDbEntity
  8
Drawing
 62
   250
420
  1842203
370
   100
  0
POLYLINE
  5
39B
330
DF
100
AcDbEntity
  8
Drawing
 62
   250
420
  1842203
370
   100
100
AcDb2dPolyline
 66
     1
 10
0.0
 20
0.0
 30
0.0
  0
VERTEX
  5
39C
330
39B
100
AcDbEntity
  8
Drawing
 62
   250
420
  1842203
370
   100
100
AcDbVertex
100
AcDb2dVertex
 10
555.6939562916302
 20
-544.920817521979
 30
0.0
  0
VERTEX
  5
39D
330
39B
100
AcDbEntity
  8
Drawing
 62
   250
420
  1842203
370
   100
100
AcDbVertex
100
AcDb2dVertex
 10
548.693970783258
 20
-544.920817521979
 30
0.0
  0
SEQEND
  5
39E
330
39B
100
AcDbEntity
  8
Drawing
 62
   250
420
  1842203
370
   100
  0
POLYLINE
  5
39F
330
DF
100
AcDbEntity
  8
Drawing
 62
   250
420
  1842203
370
   100
100
AcDb2dPolyline
 66
     1
 10
0.0
 20
0.0
 30
0.0
  0
VERTEX
  5
3A0
330
39F
100
AcDbEntity
  8
Drawing
 62
   250
420
  1842203
370
   100
100
AcDbVertex
100
AcDb2dVertex
 10
548.693970783258
 20
-544.920817521979
 30
0.0
  0
VERTEX
  5
3A1
330
39F
100
AcDbEntity
  8
Drawing
 62
   250
420
  1842203
370
   100
100
AcDbVertex
100
AcDb2dVertex
 10
548.693970783258
 20
-537.9208320136099
 30
0.0
  0
SEQEND
  5
3A2
330
39F
100
AcDbEntity
  8
Drawing
 62
   250
420
  1842203
370
   100
  0
POLYLINE
  5
3A3
330
DF
100
AcDbEntity
  8
Drawing
 62
   250
420
  1842203
370
   100
100
AcDb2dPolyline
 66
     1
 10
0.0
 20
0.0
 30
0.0
  0
VERTEX
  5
3A4
330
3A3
100
AcDbEntity
  8
Drawing
 62
   250
420
  1842203
370
   100
100
AcDbVertex
100
AcDb2dVertex
 10
566.6942244994774
 20
-537.9208320136099
 30
0.0
  0
VERTEX
  5
3A5
330
3A3
100
AcDbEntity
  8
Drawing
 62
   250
420
  1842203
370
   100
100
AcDbVertex
100
AcDb2dVertex
 10
573.694193447989
 20
-537.9208320136099
 30
0.0
  0
SEQEND
  5
3A6
330
3A3
100
AcDbEntity
  8
Drawing
 62
   250
420
  1842203
370
   100
  0
POLYLINE
  5
3A7
330
DF
100
AcDbEntity
  8
Drawing
 62
   250
420
  1842203
370
   100
100
AcDb2dPolyline
 66
     1
 10
0.0
 20
0.0
 30
0.0
  0
VERTEX
  5
3A8
330
3A7
100
AcDbEntity
  8
Drawing
 62
   250
420
  1842203
370
   100
100
AcDbVertex
100
AcDb2dVertex
 10
573.694193447989
 20
-537.9208320136099
 30
0.0
  0
VERTEX
  5
3A9
330
3A7
100
AcDbEntity
  8
Drawing
 62
   250
420
  1842203
370
   100
100
AcDbVertex
100
AcDb2dVertex
 10
573.694193447989
 20
-544.920817521979
 30
0.0
  0
SEQEND
  5
3AA
330
3A7
100
AcDbEntity
  8
Drawing
 62
   250
420
  1842203
370
   100
  0
POLYLINE
  5
3AB
330
DF
100
AcDbEntity
  8
Drawing
 62
   250
420
  1842203
370
   100
100
AcDb2dPolyline
 66
     1
 10
0.0
 20
0.0
 30
0.0
  0
VERTEX
  5
3AC
330
3AB
100
AcDbEntity
  8
Drawing
 62
   250
420
  1842203
370
   100
100
AcDbVertex
100
AcDb2dVertex
 10
573.694193447989
 20
-544.920817521979
 30
0.0
  0
VERTEX
  5
3AD
330
3AB
100
AcDbEntity
  8
Drawing
 62
   250
420
  1842203
370
   100
100
AcDbVertex
100
AcDb2dVertex
 10
566.6942244994774
 20
-544.920817521979
 30
0.0
  0
SEQEND
  5
3AE
330
3AB
100
AcDbEntity
  8
Drawing
 62
   250
420
  1842203
370
   100
  0
POLYLINE
  5
3AF
330
DF
100
AcDbEntity
  8
Drawing
 62
   250
420
  1842203
370
   100
100
AcDb2dPolyline
 66
     1
 10
0.0
 20
0.0
 30
0.0
  0
VERTEX
  5
3B0
330
3AF
100
AcDbEntity
  8
Drawing
 62
   250
420
  1842203
370
   100
100
AcDbVertex
100
AcDb2dVertex
 10
566.6942244994774
 20
-544.920817521979
 30
0.0
  0
VERTEX
  5
3B1
330
3AF
100
AcDbEntity
  8
Drawing
 62
   250
420
  1842203
370
   100
100
AcDbVertex
100
AcDb2dVertex
 10
566.6942244994774
 20
-537.9208320136099
 30
0.0
  0
SEQEND
  5
3B2
330
3AF
100
AcDbEntity
  8
Drawing
 62
   250
420
  1842203
370
   100
  0
POLYLINE
  5
3B3
330
DF
100
AcDbEntity
  8
Drawing
 62
   250
420
  1842203
370
   100
100
AcDb2dPolyline
 66
     1
 10
0.0
 20
0.0
 30
0.0
  0
VERTEX
  5
3B4
330
3B3
100
AcDbEntity
  8
Drawing
 62
   250
420
  1842203
370
   100
100
AcDbVertex
100
AcDb2dVertex
 10
584.6944616558369
 20
-537.9208320136099
 30
0.0
  0
VERTEX
  5
3B5
330
3B3
100
AcDbEntity
  8
Drawing
 62
   250
420
  1842203
370
   100
100
AcDbVertex
100
AcDb2dVertex
 10
591.6944140444879
 20
-537.9208320136099
 30
0.0
  0
SEQEND
  5
3B6
330
3B3
100
AcDbEntity
  8
Drawing
 62
   250
420
  1842203
370
   100
  0
POLYLINE
  5
3B7
330
DF
100
AcDbEntity
  8
Drawing
 62
   250
420
  1842203
370
   100
100
AcDb2dPolyline
 66
     1
 10
0.0
 20
0.0
 30
0.0
  0
VERTEX
  5
3B8
330
3B7
100
AcDbEntity
  8
Drawing
 62
   250
420
  1842203
370
   100
100
AcDbVertex
100
AcDb2dVertex
 10
591.6944140444879
 20
-537.9208320136099
 30
0.0
  0
VERTEX
  5
3B9
330
3B7
100
AcDbEntity
  8
Drawing
 62
   250
420
  1842203
370
   100
100
AcDbVertex
100
AcDb2dVertex
 10
591.6944140444879
 20
-544.920817521979
 30
0.0
  0
SEQEND
  5
3BA
330
3B7
100
AcDbEntity
  8
Drawing
 62
   250
420
  1842203
370
   100
  0
POLYLINE
  5
3BB
330
DF
100
AcDbEntity
  8
Drawing
 62
   250
420
  1842203
370
   100
100
AcDb2dPolyline
 66
     1
 10
0.0
 20
0.0
 30
0.0
  0
VERTEX
  5
3BC
330
3BB
100
AcDbEntity
  8
Drawing
 62
   250
420
  1842203
370
   100
100
AcDbVertex
100
AcDb2dVertex
 10
591.6944140444879
 20
-544.920817521979
 30
0.0
  0
VERTEX
  5
3BD
330
3BB
100
AcDbEntity
  8
Drawing
 62
   250
420
  1842203
370
   100
100
AcDbVertex
100
AcDb2dVertex
 10
584.6944616558369
 20
-544.920817521979
 30
0.0
  0
SEQEND
  5
3BE
330
3BB
100
AcDbEntity
  8
Drawing
 62
   250
420
  1842203
370
   100
  0
POLYLINE
  5
3BF
330
DF
100
AcDbEntity
  8
Drawing
 62
   250
420
  1842203
370
   100
100
AcDb2dPolyline
 66
     1
 10
0.0
 20
0.0
 30
0.0
  0
VERTEX
  5
3C0
330
3BF
100
AcDbEntity
  8
Drawing
 62
   250
420
  1842203
370
   100
100
AcDbVertex
100
AcDb2dVertex
 10
584.6944616558369
 20
-544.920817521979
 30
0.0
  0
VERTEX
  5
3C1
330
3BF
100
AcDbEntity
  8
Drawing
 62
   250
420
  1842203
370
   100
100
AcDbVertex
100
AcDb2dVertex
 10
584.6944616558369
 20
-537.9208320136099
 30
0.0
  0
SEQEND
  5
3C2
330
3BF
100
AcDbEntity
  8
Drawing
 62
   250
420
  1842203
370
   100
  0
POLYLINE
  5
3C3
330
DF
100
AcDbEntity
  8
Drawing
 62
   250
420
  1842203
370
   100
100
AcDb2dPolyline
 66
     1
 10
0.0
 20
0.0
 30
0.0
  0
VERTEX
  5
3C4
330
3C3
100
AcDbEntity
  8
Drawing
 62
   250
420
  1842203
370
   100
100
AcDbVertex
100
AcDb2dVertex
 10
440.6947171868275
 20
-555.9210691699669
 30
0.0
  0
VERTEX
  5
3C5
330
3C3
100
AcDbEntity
  8
Drawing
 62
   250
420
  1842203
370
   100
100
AcDbVertex
100
AcDb2dVertex
 10
447.6946861353385
 20
-555.9210691699669
 30
0.0
  0
SEQEND
  5
3C6
330
3C3
100
AcDbEntity
  8
Drawing
 62
   250
420
  1842203
370
   100
  0
POLYLINE
  5
3C7
330
DF
100
AcDbEntity
  8
Drawing
 62
   250
420
  1842203
370
   100
100
AcDb2dPolyline
 66
     1
 10
0.0
 20
0.0
 30
0.0
  0
VERTEX
  5
3C8
330
3C7
100
AcDbEntity
  8
Drawing
 62
   250
420
  1842203
370
   100
100
AcDbVertex
100
AcDb2dVertex
 10
447.6946861353385
 20
-555.9210691699669
 30
0.0
  0
VERTEX
  5
3C9
330
3C7
100
AcDbEntity
  8
Drawing
 62
   250
420
  1842203
370
   100
100
AcDbVertex
100
AcDb2dVertex
 10
447.6946861353385
 20
-562.9210546783397
 30
0.0
  0
SEQEND
  5
3CA
330
3C7
100
AcDbEntity
  8
Drawing
 62
   250
420
  1842203
370
   100
  0
POLYLINE
  5
3CB
330
DF
100
AcDbEntity
  8
Drawing
 62
   250
420
  1842203
370
   100
100
AcDb2dPolyline
 66
     1
 10
0.0
 20
0.0
 30
0.0
  0
VERTEX
  5
3CC
330
3CB
100
AcDbEntity
  8
Drawing
 62
   250
420
  1842203
370
   100
100
AcDbVertex
100
AcDb2dVertex
 10
447.6946861353385
 20
-562.9210546783397
 30
0.0
  0
VERTEX
  5
3CD
330
3CB
100
AcDbEntity
  8
Drawing
 62
   250
420
  1842203
370
   100
100
AcDbVertex
100
AcDb2dVertex
 10
440.6947171868275
 20
-562.9210546783397
 30
0.0
  0
SEQEND
  5
3CE
330
3CB
100
AcDbEntity
  8
Drawing
 62
   250
420
  1842203
370
   100
  0
POLYLINE
  5
3CF
330
DF
100
AcDbEntity
  8
Drawing
 62
   250
420
  1842203
370
   100
100
AcDb2dPolyline
 66
     1
 10
0.0
 20
0.0
 30
0.0
  0
VERTEX
  5
3D0
330
3CF
100
AcDbEntity
  8
Drawing
 62
   250
420
  1842203
370
   100
100
AcDbVertex
100
AcDb2dVertex
 10
440.6947171868275
 20
-562.9210546783397
 30
0.0
  0
VERTEX
  5
3D1
330
3CF
100
AcDbEntity
  8
Drawing
 62
   250
420
  1842203
370
   100
100
AcDbVertex
100
AcDb2dVertex
 10
440.6947171868275
 20
-555.9210691699669
 30
0.0
  0
SEQEND
  5
3D2
330
3CF
100
AcDbEntity
  8
Drawing
 62
   250
420
  1842203
370
   100
  0
POLYLINE
  5
3D3
330
DF
100
AcDbEntity
  8
Drawing
 62
   250
420
  1842203
370
   100
100
AcDb2dPolyline
 66
     1
 10
0.0
 20
0.0
 30
0.0
  0
VERTEX
  5
3D4
330
3D3
100
AcDbEntity
  8
Drawing
 62
   250
420
  1842203
370
   100
100
AcDbVertex
100
AcDb2dVertex
 10
458.6949543431866
 20
-555.9210691699669
 30
0.0
  0
VERTEX
  5
3D5
330
3D3
100
AcDbEntity
  8
Drawing
 62
   250
420
  1842203
370
   100
100
AcDbVertex
100
AcDb2dVertex
 10
465.6949232916979
 20
-555.9210691699669
 30
0.0
  0
SEQEND
  5
3D6
330
3D3
100
AcDbEntity
  8
Drawing
 62
   250
420
  1842203
370
   100
  0
POLYLINE
  5
3D7
330
DF
100
AcDbEntity
  8
Drawing
 62
   250
420
  1842203
370
   100
100
AcDb2dPolyline
 66
     1
 10
0.0
 20
0.0
 30
0.0
  0
VERTEX
  5
3D8
330
3D7
100
AcDbEntity
  8
Drawing
 62
   250
420
  1842203
370
   100
100
AcDbVertex
100
AcDb2dVertex
 10
465.6949232916979
 20
-555.9210691699669
 30
0.0
  0
VERTEX
  5
3D9
330
3D7
100
AcDbEntity
  8
Drawing
 62
   250
420
  1842203
370
   100
100
AcDbVertex
100
AcDb2dVertex
 10
465.6949232916979
 20
-562.9210546783397
 30
0.0
  0
SEQEND
  5
3DA
330
3D7
100
AcDbEntity
  8
Drawing
 62
   250
420
  1842203
370
   100
  0
POLYLINE
  5
3DB
330
DF
100
AcDbEntity
  8
Drawing
 62
   250
420
  1842203
370
   100
100
AcDb2dPolyline
 66
     1
 10
0.0
 20
0.0
 30
0.0
  0
VERTEX
  5
3DC
330
3DB
100
AcDbEntity
  8
Drawing
 62
   250
420
  1842203
370
   100
100
AcDbVertex
100
AcDb2dVertex
 10
465.6949232916979
 20
-562.9210546783397
 30
0.0
  0
VERTEX
  5
3DD
330
3DB
100
AcDbEntity
  8
Drawing
 62
   250
420
  1842203
370
   100
100
AcDbVertex
100
AcDb2dVertex
 10
458.6949543431866
 20
-562.9210546783397
 30
0.0
  0
SEQEND
  5
3DE
330
3DB
100
AcDbEntity
  8
Drawing
 62
   250
420
  1842203
370
   100
  0
POLYLINE
  5
3DF
330
DF
100
AcDbEntity
  8
Drawing
 62
   250
420
  1842203
370
   100
100
AcDb2dPolyline
 66
     1
 10
0.0
 20
0.0
 30
0.0
  0
VERTEX
  5
3E0
330
3DF
100
AcDbEntity
  8
Drawing
 62
   250
420
  1842203
370
   100
100
AcDbVertex
100
AcDb2dVertex
 10
458.6949543431866
 20
-562.9210546783397
 30
0.0
  0
VERTEX
  5
3E1
330
3DF
100
AcDbEntity
  8
Drawing
 62
   250
420
  1842203
370
   100
100
AcDbVertex
100
AcDb2dVertex
 10
458.6949543431866
 20
-555.9210691699669
 30
0.0
  0
SEQEND
  5
3E2
330
3DF
100
AcDbEntity
  8
Drawing
 62
   250
420
  1842203
370
   100
  0
POLYLINE
  5
3E3
330
DF
100
AcDbEntity
  8
Drawing
 62
   250
420
  1842203
370
   100
100
AcDb2dPolyline
 66
     1
 10
0.0
 20
0.0
 30
0.0
  0
VERTEX
  5
3E4
330
3E3
100
AcDbEntity
  8
Drawing
 62
   250
420
  1842203
370
   100
100
AcDbVertex
100
AcDb2dVertex
 10
476.6941151086139
 20
-555.9210691699669
 30
0.0
  0
VERTEX
  5
3E5
330
3E3
100
AcDbEntity
  8
Drawing
 62
   250
420
  1842203
370
   100
100
AcDbVertex
100
AcDb2dVertex
 10
483.6940840571255
 20
-555.9210691699669
 30
0.0
  0
SEQEND
  5
3E6
330
3E3
100
AcDbEntity
  8
Drawing
 62
   250
420
  1842203
370
   100
  0
POLYLINE
  5
3E7
330
DF
100
AcDbEntity
  8
Drawing
 62
   250
420
  1842203
370
   100
100
AcDb2dPolyline
 66
     1
 10
0.0
 20
0.0
 30
0.0
  0
VERTEX
  5
3E8
330
3E7
100
AcDbEntity
  8
Drawing
 62
   250
420
  1842203
370
   100
100
AcDbVertex
100
AcDb2dVertex
 10
483.6940840571255
 20
-555.9210691699669
 30
0.0
  0
VERTEX
  5
3E9
330
3E7
100
AcDbEntity
  8
Drawing
 62
   250
420
  1842203
370
   100
100
AcDbVertex
100
AcDb2dVertex
 10
483.6940840571255
 20
-562.9210546783397
 30
0.0
  0
SEQEND
  5
3EA
330
3E7
100
AcDbEntity
  8
Drawing
 62
   250
420
  1842203
370
   100
  0
POLYLINE
  5
3EB
330
DF
100
AcDbEntity
  8
Drawing
 62
   250
420
  1842203
370
   100
100
AcDb2dPolyline
 66
     1
 10
0.0
 20
0.0
 30
0.0
  0
VERTEX
  5
3EC
330
3EB
100
AcDbEntity
  8
Drawing
 62
   250
420
  1842203
370
   100
100
AcDbVertex
100
AcDb2dVertex
 10
483.6940840571255
 20
-562.9210546783397
 30
0.0
  0
VERTEX
  5
3ED
330
3EB
100
AcDbEntity
  8
Drawing
 62
   250
420
  1842203
370
   100
100
AcDbVertex
100
AcDb2dVertex
 10
476.6941151086139
 20
-562.9210546783397
 30
0.0
  0
SEQEND
  5
3EE
330
3EB
100
AcDbEntity
  8
Drawing
 62
   250
420
  1842203
370
   100
  0
POLYLINE
  5
3EF
330
DF
100
AcDbEntity
  8
Drawing
 62
   250
420
  1842203
370
   100
100
AcDb2dPolyline
 66
     1
 10
0.0
 20
0.0
 30
0.0
  0
VERTEX
  5
3F0
330
3EF
100
AcDbEntity
  8
Drawing
 62
   250
420
  1842203
370
   100
100
AcDbVertex
100
AcDb2dVertex
 10
476.6941151086139
 20
-562.9210546783397
 30
0.0
  0
VERTEX
  5
3F1
330
3EF
100
AcDbEntity
  8
Drawing
 62
   250
420
  1842203
370
   100
100
AcDbVertex
100
AcDb2dVertex
 10
476.6941151086139
 20
-555.9210691699669
 30
0.0
  0
SEQEND
  5
3F2
330
3EF
100
AcDbEntity
  8
Drawing
 62
   250
420
  1842203
370
   100
  0
POLYLINE
  5
3F3
330
DF
100
AcDbEntity
  8
Drawing
 62
   250
420
  1842203
370
   100
100
AcDb2dPolyline
 66
     1
 10
0.0
 20
0.0
 30
0.0
  0
VERTEX
  5
3F4
330
3F3
100
AcDbEntity
  8
Drawing
 62
   250
420
  1842203
370
   100
100
AcDbVertex
100
AcDb2dVertex
 10
494.694352264973
 20
-555.9210691699669
 30
0.0
  0
VERTEX
  5
3F5
330
3F3
100
AcDbEntity
  8
Drawing
 62
   250
420
  1842203
370
   100
100
AcDbVertex
100
AcDb2dVertex
 10
501.6943212134847
 20
-555.9210691699669
 30
0.0
  0
SEQEND
  5
3F6
330
3F3
100
AcDbEntity
  8
Drawing
 62
   250
420
  1842203
370
   100
  0
POLYLINE
  5
3F7
330
DF
100
AcDbEntity
  8
Drawing
 62
   250
420
  1842203
370
   100
100
AcDb2dPolyline
 66
     1
 10
0.0
 20
0.0
 30
0.0
  0
VERTEX
  5
3F8
330
3F7
100
AcDbEntity
  8
Drawing
 62
   250
420
  1842203
370
   100
100
AcDbVertex
100
AcDb2dVertex
 10
501.6943212134847
 20
-555.9210691699669
 30
0.0
  0
VERTEX
  5
3F9
330
3F7
100
AcDbEntity
  8
Drawing
 62
   250
420
  1842203
370
   100
100
AcDbVertex
100
AcDb2dVertex
 10
501.6943212134847
 20
-562.9210546783397
 30
0.0
  0
SEQEND
  5
3FA
330
3F7
100
AcDbEntity
  8
Drawing
 62
   250
420
  1842203
370
   100
  0
POLYLINE
  5
3FB
330
DF
100
AcDbEntity
  8
Drawing
 62
   250
420
  1842203
370
   100
100
AcDb2dPolyline
 66
     1
 10
0.0
 20
0.0
 30
0.0
  0
VERTEX
  5
3FC
330
3FB
100
AcDbEntity
  8
Drawing
 62
   250
420
  1842203
370
   100
100
AcDbVertex
100
AcDb2dVertex
 10
501.6943212134847
 20
-562.9210546783397
 30
0.0
  0
VERTEX
  5
3FD
330
3FB
100
AcDbEntity
  8
Drawing
 62
   250
420
  1842203
370
   100
100
AcDbVertex
100
AcDb2dVertex
 10
494.694352264973
 20
-562.9210546783397
 30
0.0
  0
SEQEND
  5
3FE
330
3FB
100
AcDbEntity
  8
Drawing
 62
   250
420
  1842203
370
   100
  0
POLYLINE
  5
3FF
330
DF
100
AcDbEntity
  8
Drawing
 62
   250
420
  1842203
370
   100
100
AcDb2dPolyline
 66
     1
 10
0.0
 20
0.0
 30
0.0
  0
VERTEX
  5
400
330
3FF
100
AcDbEntity
  8
Drawing
 62
   250
420
  1842203
370
   100
100
AcDbVertex
100
AcDb2dVertex
 10
494.694352264973
 20
-562.9210546783397
 30
0.0
  0
VERTEX
  5
401
330
3FF
100
AcDbEntity
  8
Drawing
 62
   250
420
  1842203
370
   100
100
AcDbVertex
100
AcDb2dVertex
 10
494.694352264973
 20
-555.9210691699669
 30
0.0
  0
SEQEND
  5
402
330
3FF
100
AcDbEntity
  8
Drawing
 62
   250
420
  1842203
370
   100
  0
POLYLINE
  5
403
330
DF
100
AcDbEntity
  8
Drawing
 62
   250
420
  1842203
370
   100
100
AcDb2dPolyline
 66
     1
 10
0.0
 20
0.0
 30
0.0
  0
VERTEX
  5
404
330
403
100
AcDbEntity
  8
Drawing
 62
   250
420
  1842203
370
   100
100
AcDbVertex
100
AcDb2dVertex
 10
512.6945894213319
 20
-555.9210691699669
 30
0.0
  0
VERTEX
  5
405
330
403
100
AcDbEntity
  8
Drawing
 62
   250
420
  1842203
370
   100
100
AcDbVertex
100
AcDb2dVertex
 10
519.6945583698435
 20
-555.9210691699669
 30
0.0
  0
SEQEND
  5
406
330
403
100
AcDbEntity
  8
Drawing
 62
   250
420
  1842203
370
   100
  0
POLYLINE
  5
407
330
DF
100
AcDbEntity
  8
Drawing
 62
   250
420
  1842203
370
   100
100
AcDb2dPolyline
 66
     1
 10
0.0
 20
0.0
 30
0.0
  0
VERTEX
  5
408
330
407
100
AcDbEntity
  8
Drawing
 62
   250
420
  1842203
370
   100
100
AcDbVertex
100
AcDb2dVertex
 10
519.6945583698435
 20
-555.9210691699669
 30
0.0
  0
VERTEX
  5
409
330
407
100
AcDbEntity
  8
Drawing
 62
   250
420
  1842203
370
   100
100
AcDbVertex
100
AcDb2dVertex
 10
519.6945583698435
 20
-562.9210546783397
 30
0.0
  0
SEQEND
  5
40A
330
407
100
AcDbEntity
  8
Drawing
 62
   250
420
  1842203
370
   100
  0
POLYLINE
  5
40B
330
DF
100
AcDbEntity
  8
Drawing
 62
   250
420
  1842203
370
   100
100
AcDb2dPolyline
 66
     1
 10
0.0
 20
0.0
 30
0.0
  0
VERTEX
  5
40C
330
40B
100
AcDbEntity
  8
Drawing
 62
   250
420
  1842203
370
   100
100
AcDbVertex
100
AcDb2dVertex
 10
519.6945583698435
 20
-562.9210546783397
 30
0.0
  0
VERTEX
  5
40D
330
40B
100
AcDbEntity
  8
Drawing
 62
   250
420
  1842203
370
   100
100
AcDbVertex
100
AcDb2dVertex
 10
512.6945894213319
 20
-562.9210546783397
 30
0.0
  0
SEQEND
  5
40E
330
40B
100
AcDbEntity
  8
Drawing
 62
   250
420
  1842203
370
   100
  0
POLYLINE
  5
40F
330
DF
100
AcDbEntity
  8
Drawing
 62
   250
420
  1842203
370
   100
100
AcDb2dPolyline
 66
     1
 10
0.0
 20
0.0
 30
0.0
  0
VERTEX
  5
410
330
40F
100
AcDbEntity
  8
Drawing
 62
   250
420
  1842203
370
   100
100
AcDbVertex
100
AcDb2dVertex
 10
512.6945894213319
 20
-562.9210546783397
 30
0.0
  0
VERTEX
  5
411
330
40F
100
AcDbEntity
  8
Drawing
 62
   250
420
  1842203
370
   100
100
AcDbVertex
100
AcDb2dVertex
 10
512.6945894213319
 20
-555.9210691699669
 30
0.0
  0
SEQEND
  5
412
330
40F
100
AcDbEntity
  8
Drawing
 62
   250
420
  1842203
370
   100
  0
POLYLINE
  5
413
330
DF
100
AcDbEntity
  8
Drawing
 62
   250
420
  1842203
370
   100
100
AcDb2dPolyline
 66
     1
 10
0.0
 20
0.0
 30
0.0
  0
VERTEX
  5
414
330
413
100
AcDbEntity
  8
Drawing
 62
   250
420
  1842203
370
   100
100
AcDbVertex
100
AcDb2dVertex
 10
530.6948265776913
 20
-555.9210691699669
 30
0.0
  0
VERTEX
  5
415
330
413
100
AcDbEntity
  8
Drawing
 62
   250
420
  1842203
370
   100
100
AcDbVertex
100
AcDb2dVertex
 10
537.6947955262029
 20
-555.9210691699669
 30
0.0
  0
SEQEND
  5
416
330
413
100
AcDbEntity
  8
Drawing
 62
   250
420
  1842203
370
   100
  0
POLYLINE
  5
417
330
DF
100
AcDbEntity
  8
Drawing
 62
   250
420
  1842203
370
   100
100
AcDb2dPolyline
 66
     1
 10
0.0
 20
0.0
 30
0.0
  0
VERTEX
  5
418
330
417
100
AcDbEntity
  8
Drawing
 62
   250
420
  1842203
370
   100
100
AcDbVertex
100
AcDb2dVertex
 10
537.6947955262029
 20
-555.9210691699669
 30
0.0
  0
VERTEX
  5
419
330
417
100
AcDbEntity
  8
Drawing
 62
   250
420
  1842203
370
   100
100
AcDbVertex
100
AcDb2dVertex
 10
537.6947955262029
 20
-562.9210546783397
 30
0.0
  0
SEQEND
  5
41A
330
417
100
AcDbEntity
  8
Drawing
 62
   250
420
  1842203
370
   100
  0
POLYLINE
  5
41B
330
DF
100
AcDbEntity
  8
Drawing
 62
   250
420
  1842203
370
   100
100
AcDb2dPolyline
 66
     1
 10
0.0
 20
0.0
 30
0.0
  0
VERTEX
  5
41C
330
41B
100
AcDbEntity
  8
Drawing
 62
   250
420
  1842203
370
   100
100
AcDbVertex
100
AcDb2dVertex
 10
537.6947955262029
 20
-562.9210546783397
 30
0.0
  0
VERTEX
  5
41D
330
41B
100
AcDbEntity
  8
Drawing
 62
   250
420
  1842203
370
   100
100
AcDbVertex
100
AcDb2dVertex
 10
530.6948265776913
 20
-562.9210546783397
 30
0.0
  0
SEQEND
  5
41E
330
41B
100
AcDbEntity
  8
Drawing
 62
   250
420
  1842203
370
   100
  0
POLYLINE
  5
41F
330
DF
100
AcDbEntity
  8
Drawing
 62
   250
420
  1842203
370
   100
100
AcDb2dPolyline
 66
     1
 10
0.0
 20
0.0
 30
0.0
  0
VERTEX
  5
420
330
41F
100
AcDbEntity
  8
Drawing
 62
   250
420
  1842203
370
   100
100
AcDbVertex
100
AcDb2dVertex
 10
530.6948265776913
 20
-562.9210546783397
 30
0.0
  0
VERTEX
  5
421
330
41F
100
AcDbEntity
  8
Drawing
 62
   250
420
  1842203
370
   100
100
AcDbVertex
100
AcDb2dVertex
 10
530.6948265776913
 20
-555.9210691699669
 30
0.0
  0
SEQEND
  5
422
330
41F
100
AcDbEntity
  8
Drawing
 62
   250
420
  1842203
370
   100
  0
POLYLINE
  5
423
330
DF
100
AcDbEntity
  8
Drawing
 62
   250
420
  1842203
370
   100
100
AcDb2dPolyline
 66
     1
 10
0.0
 20
0.0
 30
0.0
  0
VERTEX
  5
424
330
423
100
AcDbEntity
  8
Drawing
 62
   250
420
  1842203
370
   100
100
AcDbVertex
100
AcDb2dVertex
 10
548.693970783258
 20
-555.9210691699669
 30
0.0
  0
VERTEX
  5
425
330
423
100
AcDbEntity
  8
Drawing
 62
   250
420
  1842203
370
   100
100
AcDbVertex
100
AcDb2dVertex
 10
555.6939562916302
 20
-555.9210691699669
 30
0.0
  0
SEQEND
  5
426
330
423
100
AcDbEntity
  8
Drawing
 62
   250
420
  1842203
370
   100
  0
POLYLINE
  5
427
330
DF
100
AcDbEntity
  8
Drawing
 62
   250
420
  1842203
370
   100
100
AcDb2dPolyline
 66
     1
 10
0.0
 20
0.0
 30
0.0
  0
VERTEX
  5
428
330
427
100
AcDbEntity
  8
Drawing
 62
   250
420
  1842203
370
   100
100
AcDbVertex
100
AcDb2dVertex
 10
555.6939562916302
 20
-555.9210691699669
 30
0.0
  0
VERTEX
  5
429
330
427
100
AcDbEntity
  8
Drawing
 62
   250
420
  1842203
370
   100
100
AcDbVertex
100
AcDb2dVertex
 10
555.6939562916302
 20
-562.9210546783397
 30
0.0
  0
SEQEND
  5
42A
330
427
100
AcDbEntity
  8
Drawing
 62
   250
420
  1842203
370
   100
  0
POLYLINE
  5
42B
330
DF
100
AcDbEntity
  8
Drawing
 62
   250
420
  1842203
370
   100
100
AcDb2dPolyline
 66
     1
 10
0.0
 20
0.0
 30
0.0
  0
VERTEX
  5
42C
330
42B
100
AcDbEntity
  8
Drawing
 62
   250
420
  1842203
370
   100
100
AcDbVertex
100
AcDb2dVertex
 10
555.6939562916302
 20
-562.9210546783397
 30
0.0
  0
VERTEX
  5
42D
330
42B
100
AcDbEntity
  8
Drawing
 62
   250
420
  1842203
370
   100
100
AcDbVertex
100
AcDb2dVertex
 10
548.693970783258
 20
-562.9210546783397
 30
0.0
  0
SEQEND
  5
42E
330
42B
100
AcDbEntity
  8
Drawing
 62
   250
420
  1842203
370
   100
  0
POLYLINE
  5
42F
330
DF
100
AcDbEntity
  8
Drawing
 62
   250
420
  1842203
370
   100
100
AcDb2dPolyline
 66
     1
 10
0.0
 20
0.0
 30
0.0
  0
VERTEX
  5
430
330
42F
100
AcDbEntity
  8
Drawing
 62
   250
420
  1842203
370
   100
100
AcDbVertex
100
AcDb2dVertex
 10
548.693970783258
 20
-562.9210546783397
 30
0.0
  0
VERTEX
  5
431
330
42F
100
AcDbEntity
  8
Drawing
 62
   250
420
  1842203
370
   100
100
AcDbVertex
100
AcDb2dVertex
 10
548.693970783258
 20
-555.9210691699669
 30
0.0
  0
SEQEND
  5
432
330
42F
100
AcDbEntity
  8
Drawing
 62
   250
420
  1842203
370
   100
  0
POLYLINE
  5
433
330
DF
100
AcDbEntity
  8
Drawing
 62
   250
420
  1842203
370
   100
100
AcDb2dPolyline
 66
     1
 10
0.0
 20
0.0
 30
0.0
  0
VERTEX
  5
434
330
433
100
AcDbEntity
  8
Drawing
 62
   250
420
  1842203
370
   100
100
AcDbVertex
100
AcDb2dVertex
 10
566.6942244994774
 20
-555.9210691699669
 30
0.0
  0
VERTEX
  5
435
330
433
100
AcDbEntity
  8
Drawing
 62
   250
420
  1842203
370
   100
100
AcDbVertex
100
AcDb2dVertex
 10
573.694193447989
 20
-555.9210691699669
 30
0.0
  0
SEQEND
  5
436
330
433
100
AcDbEntity
  8
Drawing
 62
   250
420
  1842203
370
   100
  0
POLYLINE
  5
437
330
DF
100
AcDbEntity
  8
Drawing
 62
   250
420
  1842203
370
   100
100
AcDb2dPolyline
 66
     1
 10
0.0
 20
0.0
 30
0.0
  0
VERTEX
  5
438
330
437
100
AcDbEntity
  8
Drawing
 62
   250
420
  1842203
370
   100
100
AcDbVertex
100
AcDb2dVertex
 10
573.694193447989
 20
-555.9210691699669
 30
0.0
  0
VERTEX
  5
439
330
437
100
AcDbEntity
  8
Drawing
 62
   250
420
  1842203
370
   100
100
AcDbVertex
100
AcDb2dVertex
 10
573.694193447989
 20
-562.9210546783397
 30
0.0
  0
SEQEND
  5
43A
330
437
100
AcDbEntity
  8
Drawing
 62
   250
420
  1842203
370
   100
  0
POLYLINE
  5
43B
330
DF
100
AcDbEntity
  8
Drawing
 62
   250
420
  1842203
370
   100
100
AcDb2dPolyline
 66
     1
 10
0.0
 20
0.0
 30
0.0
  0
VERTEX
  5
43C
330
43B
100
AcDbEntity
  8
Drawing
 62
   250
420
  1842203
370
   100
100
AcDbVertex
100
AcDb2dVertex
 10
573.694193447989
 20
-562.9210546783397
 30
0.0
  0
VERTEX
  5
43D
330
43B
100
AcDbEntity
  8
Drawing
 62
   250
420
  1842203
370
   100
100
AcDbVertex
100
AcDb2dVertex
 10
566.6942244994774
 20
-562.9210546783397
 30
0.0
  0
SEQEND
  5
43E
330
43B
100
AcDbEntity
  8
Drawing
 62
   250
420
  1842203
370
   100
  0
POLYLINE
  5
43F
330
DF
100
AcDbEntity
  8
Drawing
 62
   250
420
  1842203
370
   100
100
AcDb2dPolyline
 66
     1
 10
0.0
 20
0.0
 30
0.0
  0
VERTEX
  5
440
330
43F
100
AcDbEntity
  8
Drawing
 62
   250
420
  1842203
370
   100
100
AcDbVertex
100
AcDb2dVertex
 10
566.6942244994774
 20
-562.9210546783397
 30
0.0
  0
VERTEX
  5
441
330
43F
100
AcDbEntity
  8
Drawing
 62
   250
420
  1842203
370
   100
100
AcDbVertex
100
AcDb2dVertex
 10
566.6942244994774
 20
-555.9210691699669
 30
0.0
  0
SEQEND
  5
442
330
43F
100
AcDbEntity
  8
Drawing
 62
   250
420
  1842203
370
   100
  0
POLYLINE
  5
443
330
DF
100
AcDbEntity
  8
Drawing
 62
   250
420
  1842203
370
   100
100
AcDb2dPolyline
 66
     1
 10
0.0
 20
0.0
 30
0.0
  0
VERTEX
  5
444
330
443
100
AcDbEntity
  8
Drawing
 62
   250
420
  1842203
370
   100
100
AcDbVertex
100
AcDb2dVertex
 10
584.6944616558369
 20
-555.9210691699669
 30
0.0
  0
VERTEX
  5
445
330
443
100
AcDbEntity
  8
Drawing
 62
   250
420
  1842203
370
   100
100
AcDbVertex
100
AcDb2dVertex
 10
591.6944140444879
 20
-555.9210691699669
 30
0.0
  0
SEQEND
  5
446
330
443
100
AcDbEntity
  8
Drawing
 62
   250
420
  1842203
370
   100
  0
POLYLINE
  5
447
330
DF
100
AcDbEntity
  8
Drawing
 62
   250
420
  1842203
370
   100
100
AcDb2dPolyline
 66
     1
 10
0.0
 20
0.0
 30
0.0
  0
VERTEX
  5
448
330
447
100
AcDbEntity
  8
Drawing
 62
   250
420
  1842203
370
   100
100
AcDbVertex
100
AcDb2dVertex
 10
591.6944140444879
 20
-555.9210691699669
 30
0.0
  0
VERTEX
  5
449
330
447
100
AcDbEntity
  8
Drawing
 62
   250
420
  1842203
370
   100
100
AcDbVertex
100
AcDb2dVertex
 10
591.6944140444879
 20
-562.9210546783397
 30
0.0
  0
SEQEND
  5
44A
330
447
100
AcDbEntity
  8
Drawing
 62
   250
420
  1842203
370
   100
  0
POLYLINE
  5
44B
330
DF
100
AcDbEntity
  8
Drawing
 62
   250
420
  1842203
370
   100
100
AcDb2dPolyline
 66
     1
 10
0.0
 20
0.0
 30
0.0
  0
VERTEX
  5
44C
330
44B
100
AcDbEntity
  8
Drawing
 62
   250
420
  1842203
370
   100
100
AcDbVertex
100
AcDb2dVertex
 10
591.6944140444879
 20
-562.9210546783397
 30
0.0
  0
VERTEX
  5
44D
330
44B
100
AcDbEntity
  8
Drawing
 62
   250
420
  1842203
370
   100
100
AcDbVertex
100
AcDb2dVertex
 10
584.6944616558369
 20
-562.9210546783397
 30
0.0
  0
SEQEND
  5
44E
330
44B
100
AcDbEntity
  8
Drawing
 62
   250
420
  1842203
370
   100
  0
POLYLINE
  5
44F
330
DF
100
AcDbEntity
  8
Drawing
 62
   250
420
  1842203
370
   100
100
AcDb2dPolyline
 66
     1
 10
0.0
 20
0.0
 30
0.0
  0
VERTEX
  5
450
330
44F
100
AcDbEntity
  8
Drawing
 62
   250
420
  1842203
370
   100
100
AcDbVertex
100
AcDb2dVertex
 10
584.6944616558369
 20
-562.9210546783397
 30
0.0
  0
VERTEX
  5
451
330
44F
100
AcDbEntity
  8
Drawing
 62
   250
420
  1842203
370
   100
100
AcDbVertex
100
AcDb2dVertex
 10
584.6944616558369
 20
-555.9210691699669
 30
0.0
  0
SEQEND
  5
452
330
44F
100
AcDbEntity
  8
Drawing
 62
   250
420
  1842203
370
   100
  0
POLYLINE
  5
453
330
DF
100
AcDbEntity
  8
Drawing
 62
   250
420
  1842203
370
   100
100
AcDb2dPolyline
 66
     1
 10
0.0
 20
0.0
 30
0.0
  0
VERTEX
  5
454
330
453
100
AcDbEntity
  8
Drawing
 62
   250
420
  1842203
370
   100
100
AcDbVertex
100
AcDb2dVertex
 10
440.6947171868275
 20
-573.9213228861889
 30
0.0
  0
VERTEX
  5
455
330
453
100
AcDbEntity
  8
Drawing
 62
   250
420
  1842203
370
   100
100
AcDbVertex
100
AcDb2dVertex
 10
447.6946861353385
 20
-573.9213228861889
 30
0.0
  0
SEQEND
  5
456
330
453
100
AcDbEntity
  8
Drawing
 62
   250
420
  1842203
370
   100
  0
POLYLINE
  5
457
330
DF
100
AcDbEntity
  8
Drawing
 62
   250
420
  1842203
370
   100
100
AcDb2dPolyline
 66
     1
 10
0.0
 20
0.0
 30
0.0
  0
VERTEX
  5
458
330
457
100
AcDbEntity
  8
Drawing
 62
   250
420
  1842203
370
   100
100
AcDbVertex
100
AcDb2dVertex
 10
447.6946861353385
 20
-573.9213228861889
 30
0.0
  0
VERTEX
  5
459
330
457
100
AcDbEntity
  8
Drawing
 62
   250
420
  1842203
370
   100
100
AcDbVertex
100
AcDb2dVertex
 10
447.6946861353385
 20
-580.9212918346992
 30
0.0
  0
SEQEND
  5
45A
330
457
100
AcDbEntity
  8
Drawing
 62
   250
420
  1842203
370
   100
  0
POLYLINE
  5
45B
330
DF
100
AcDbEntity
  8
Drawing
 62
   250
420
  1842203
370
   100
100
AcDb2dPolyline
 66
     1
 10
0.0
 20
0.0
 30
0.0
  0
VERTEX
  5
45C
330
45B
100
AcDbEntity
  8
Drawing
 62
   250
420
  1842203
370
   100
100
AcDbVertex
100
AcDb2dVertex
 10
447.6946861353385
 20
-580.9212918346992
 30
0.0
  0
VERTEX
  5
45D
330
45B
100
AcDbEntity
  8
Drawing
 62
   250
420
  1842203
370
   100
100
AcDbVertex
100
AcDb2dVertex
 10
440.6947171868275
 20
-580.9212918346992
 30
0.0
  0
SEQEND
  5
45E
330
45B
100
AcDbEntity
  8
Drawing
 62
   250
420
  1842203
370
   100
  0
POLYLINE
  5
45F
330
DF
100
AcDbEntity
  8
Drawing
 62
   250
420
  1842203
370
   100
100
AcDb2dPolyline
 66
     1
 10
0.0
 20
0.0
 30
0.0
  0
VERTEX
  5
460
330
45F
100
AcDbEntity
  8
Drawing
 62
   250
420
  1842203
370
   100
100
AcDbVertex
100
AcDb2dVertex
 10
440.6947171868275
 20
-580.9212918346992
 30
0.0
  0
VERTEX
  5
461
330
45F
100
AcDbEntity
  8
Drawing
 62
   250
420
  1842203
370
   100
100
AcDbVertex
100
AcDb2dVertex
 10
440.6947171868275
 20
-573.9213228861889
 30
0.0
  0
SEQEND
  5
462
330
45F
100
AcDbEntity
  8
Drawing
 62
   250
420
  1842203
370
   100
  0
POLYLINE
  5
463
330
DF
100
AcDbEntity
  8
Drawing
 62
   250
420
  1842203
370
   100
100
AcDb2dPolyline
 66
     1
 10
0.0
 20
0.0
 30
0.0
  0
VERTEX
  5
464
330
463
100
AcDbEntity
  8
Drawing
 62
   250
420
  1842203
370
   100
100
AcDbVertex
100
AcDb2dVertex
 10
458.6949543431866
 20
-573.9213228861889
 30
0.0
  0
VERTEX
  5
465
330
463
100
AcDbEntity
  8
Drawing
 62
   250
420
  1842203
370
   100
100
AcDbVertex
100
AcDb2dVertex
 10
465.6949232916979
 20
-573.9213228861889
 30
0.0
  0
SEQEND
  5
466
330
463
100
AcDbEntity
  8
Drawing
 62
   250
420
  1842203
370
   100
  0
POLYLINE
  5
467
330
DF
100
AcDbEntity
  8
Drawing
 62
   250
420
  1842203
370
   100
100
AcDb2dPolyline
 66
     1
 10
0.0
 20
0.0
 30
0.0
  0
VERTEX
  5
468
330
467
100
AcDbEntity
  8
Drawing
 62
   250
420
  1842203
370
   100
100
AcDbVertex
100
AcDb2dVertex
 10
465.6949232916979
 20
-573.9213228861889
 30
0.0
  0
VERTEX
  5
469
330
467
100
AcDbEntity
  8
Drawing
 62
   250
420
  1842203
370
   100
100
AcDbVertex
100
AcDb2dVertex
 10
465.6949232916979
 20
-580.9212918346992
 30
0.0
  0
SEQEND
  5
46A
330
467
100
AcDbEntity
  8
Drawing
 62
   250
420
  1842203
370
   100
  0
POLYLINE
  5
46B
330
DF
100
AcDbEntity
  8
Drawing
 62
   250
420
  1842203
370
   100
100
AcDb2dPolyline
 66
     1
 10
0.0
 20
0.0
 30
0.0
  0
VERTEX
  5
46C
330
46B
100
AcDbEntity
  8
Drawing
 62
   250
420
  1842203
370
   100
100
AcDbVertex
100
AcDb2dVertex
 10
465.6949232916979
 20
-580.9212918346992
 30
0.0
  0
VERTEX
  5
46D
330
46B
100
AcDbEntity
  8
Drawing
 62
   250
420
  1842203
370
   100
100
AcDbVertex
100
AcDb2dVertex
 10
458.6949543431866
 20
-580.9212918346992
 30
0.0
  0
SEQEND
  5
46E
330
46B
100
AcDbEntity
  8
Drawing
 62
   250
420
  1842203
370
   100
  0
POLYLINE
  5
46F
330
DF
100
AcDbEntity
  8
Drawing
 62
   250
420
  1842203
370
   100
100
AcDb2dPolyline
 66
     1
 10
0.0
 20
0.0
 30
0.0
  0
VERTEX
  5
470
330
46F
100
AcDbEntity
  8
Drawing
 62
   250
420
  1842203
370
   100
100
AcDbVertex
100
AcDb2dVertex
 10
458.6949543431866
 20
-580.9212918346992
 30
0.0
  0
VERTEX
  5
471
330
46F
100
AcDbEntity
  8
Drawing
 62
   250
420
  1842203
370
   100
100
AcDbVertex
100
AcDb2dVertex
 10
458.6949543431866
 20
-573.9213228861889
 30
0.0
  0
SEQEND
  5
472
330
46F
100
AcDbEntity
  8
Drawing
 62
   250
420
  1842203
370
   100
  0
POLYLINE
  5
473
330
DF
100
AcDbEntity
  8
Drawing
 62
   250
420
  1842203
370
   100
100
AcDb2dPolyline
 66
     1
 10
0.0
 20
0.0
 30
0.0
  0
VERTEX
  5
474
330
473
100
AcDbEntity
  8
Drawing
 62
   250
420
  1842203
370
   100
100
AcDbVertex
100
AcDb2dVertex
 10
476.6941151086139
 20
-573.9213228861889
 30
0.0
  0
VERTEX
  5
475
330
473
100
AcDbEntity
  8
Drawing
 62
   250
420
  1842203
370
   100
100
AcDbVertex
100
AcDb2dVertex
 10
483.6940840571255
 20
-573.9213228861889
 30
0.0
  0
SEQEND
  5
476
330
473
100
AcDbEntity
  8
Drawing
 62
   250
420
  1842203
370
   100
  0
POLYLINE
  5
477
330
DF
100
AcDbEntity
  8
Drawing
 62
   250
420
  1842203
370
   100
100
AcDb2dPolyline
 66
     1
 10
0.0
 20
0.0
 30
0.0
  0
VERTEX
  5
478
330
477
100
AcDbEntity
  8
Drawing
 62
   250
420
  1842203
370
   100
100
AcDbVertex
100
AcDb2dVertex
 10
483.6940840571255
 20
-573.9213228861889
 30
0.0
  0
VERTEX
  5
479
330
477
100
AcDbEntity
  8
Drawing
 62
   250
420
  1842203
370
   100
100
AcDbVertex
100
AcDb2dVertex
 10
483.6940840571255
 20
-580.9212918346992
 30
0.0
  0
SEQEND
  5
47A
330
477
100
AcDbEntity
  8
Drawing
 62
   250
420
  1842203
370
   100
  0
POLYLINE
  5
47B
330
DF
100
AcDbEntity
  8
Drawing
 62
   250
420
  1842203
370
   100
100
AcDb2dPolyline
 66
     1
 10
0.0
 20
0.0
 30
0.0
  0
VERTEX
  5
47C
330
47B
100
AcDbEntity
  8
Drawing
 62
   250
420
  1842203
370
   100
100
AcDbVertex
100
AcDb2dVertex
 10
483.6940840571255
 20
-580.9212918346992
 30
0.0
  0
VERTEX
  5
47D
330
47B
100
AcDbEntity
  8
Drawing
 62
   250
420
  1842203
370
   100
100
AcDbVertex
100
AcDb2dVertex
 10
476.6941151086139
 20
-580.9212918346992
 30
0.0
  0
SEQEND
  5
47E
330
47B
100
AcDbEntity
  8
Drawing
 62
   250
420
  1842203
370
   100
  0
POLYLINE
  5
47F
330
DF
100
AcDbEntity
  8
Drawing
 62
   250
420
  1842203
370
   100
100
AcDb2dPolyline
 66
     1
 10
0.0
 20
0.0
 30
0.0
  0
VERTEX
  5
480
330
47F
100
AcDbEntity
  8
Drawing
 62
   250
420
  1842203
370
   100
100
AcDbVertex
100
AcDb2dVertex
 10
476.6941151086139
 20
-580.9212918346992
 30
0.0
  0
VERTEX
  5
481
330
47F
100
AcDbEntity
  8
Drawing
 62
   250
420
  1842203
370
   100
100
AcDbVertex
100
AcDb2dVertex
 10
476.6941151086139
 20
-573.9213228861889
 30
0.0
  0
SEQEND
  5
482
330
47F
100
AcDbEntity
  8
Drawing
 62
   250
420
  1842203
370
   100
  0
POLYLINE
  5
483
330
DF
100
AcDbEntity
  8
Drawing
 62
   250
420
  1842203
370
   100
100
AcDb2dPolyline
 66
     1
 10
0.0
 20
0.0
 30
0.0
  0
VERTEX
  5
484
330
483
100
AcDbEntity
  8
Drawing
 62
   250
420
  1842203
370
   100
100
AcDbVertex
100
AcDb2dVertex
 10
494.694352264973
 20
-573.9213228861889
 30
0.0
  0
VERTEX
  5
485
330
483
100
AcDbEntity
  8
Drawing
 62
   250
420
  1842203
370
   100
100
AcDbVertex
100
AcDb2dVertex
 10
501.6943212134847
 20
-573.9213228861889
 30
0.0
  0
SEQEND
  5
486
330
483
100
AcDbEntity
  8
Drawing
 62
   250
420
  1842203
370
   100
  0
POLYLINE
  5
487
330
DF
100
AcDbEntity
  8
Drawing
 62
   250
420
  1842203
370
   100
100
AcDb2dPolyline
 66
     1
 10
0.0
 20
0.0
 30
0.0
  0
VERTEX
  5
488
330
487
100
AcDbEntity
  8
Drawing
 62
   250
420
  1842203
370
   100
100
AcDbVertex
100
AcDb2dVertex
 10
501.6943212134847
 20
-573.9213228861889
 30
0.0
  0
VERTEX
  5
489
330
487
100
AcDbEntity
  8
Drawing
 62
   250
420
  1842203
370
   100
100
AcDbVertex
100
AcDb2dVertex
 10
501.6943212134847
 20
-580.9212918346992
 30
0.0
  0
SEQEND
  5
48A
330
487
100
AcDbEntity
  8
Drawing
 62
   250
420
  1842203
370
   100
  0
POLYLINE
  5
48B
330
DF
100
AcDbEntity
  8
Drawing
 62
   250
420
  1842203
370
   100
100
AcDb2dPolyline
 66
     1
 10
0.0
 20
0.0
 30
0.0
  0
VERTEX
  5
48C
330
48B
100
AcDbEntity
  8
Drawing
 62
   250
420
  1842203
370
   100
100
AcDbVertex
100
AcDb2dVertex
 10
501.6943212134847
 20
-580.9212918346992
 30
0.0
  0
VERTEX
  5
48D
330
48B
100
AcDbEntity
  8
Drawing
 62
   250
420
  1842203
370
   100
100
AcDbVertex
100
AcDb2dVertex
 10
494.694352264973
 20
-580.9212918346992
 30
0.0
  0
SEQEND
  5
48E
330
48B
100
AcDbEntity
  8
Drawing
 62
   250
420
  1842203
370
   100
  0
POLYLINE
  5
48F
330
DF
100
AcDbEntity
  8
Drawing
 62
   250
420
  1842203
370
   100
100
AcDb2dPolyline
 66
     1
 10
0.0
 20
0.0
 30
0.0
  0
VERTEX
  5
490
330
48F
100
AcDbEntity
  8
Drawing
 62
   250
420
  1842203
370
   100
100
AcDbVertex
100
AcDb2dVertex
 10
494.694352264973
 20
-580.9212918346992
 30
0.0
  0
VERTEX
  5
491
330
48F
100
AcDbEntity
  8
Drawing
 62
   250
420
  1842203
370
   100
100
AcDbVertex
100
AcDb2dVertex
 10
494.694352264973
 20
-573.9213228861889
 30
0.0
  0
SEQEND
  5
492
330
48F
100
AcDbEntity
  8
Drawing
 62
   250
420
  1842203
370
   100
  0
POLYLINE
  5
493
330
DF
100
AcDbEntity
  8
Drawing
 62
   250
420
  1842203
370
   100
100
AcDb2dPolyline
 66
     1
 10
0.0
 20
0.0
 30
0.0
  0
VERTEX
  5
494
330
493
100
AcDbEntity
  8
Drawing
 62
   250
420
  1842203
370
   100
100
AcDbVertex
100
AcDb2dVertex
 10
512.6945894213319
 20
-573.9213228861889
 30
0.0
  0
VERTEX
  5
495
330
493
100
AcDbEntity
  8
Drawing
 62
   250
420
  1842203
370
   100
100
AcDbVertex
100
AcDb2dVertex
 10
519.6945583698435
 20
-573.9213228861889
 30
0.0
  0
SEQEND
  5
496
330
493
100
AcDbEntity
  8
Drawing
 62
   250
420
  1842203
370
   100
  0
POLYLINE
  5
497
330
DF
100
AcDbEntity
  8
Drawing
 62
   250
420
  1842203
370
   100
100
AcDb2dPolyline
 66
     1
 10
0.0
 20
0.0
 30
0.0
  0
VERTEX
  5
498
330
497
100
AcDbEntity
  8
Drawing
 62
   250
420
  1842203
370
   100
100
AcDbVertex
100
AcDb2dVertex
 10
519.6945583698435
 20
-573.9213228861889
 30
0.0
  0
VERTEX
  5
499
330
497
100
AcDbEntity
  8
Drawing
 62
   250
420
  1842203
370
   100
100
AcDbVertex
100
AcDb2dVertex
 10
519.6945583698435
 20
-580.9212918346992
 30
0.0
  0
SEQEND
  5
49A
330
497
100
AcDbEntity
  8
Drawing
 62
   250
420
  1842203
370
   100
  0
POLYLINE
  5
49B
330
DF
100
AcDbEntity
  8
Drawing
 62
   250
420
  1842203
370
   100
100
AcDb2dPolyline
 66
     1
 10
0.0
 20
0.0
 30
0.0
  0
VERTEX
  5
49C
330
49B
100
AcDbEntity
  8
Drawing
 62
   250
420
  1842203
370
   100
100
AcDbVertex
100
AcDb2dVertex
 10
519.6945583698435
 20
-580.9212918346992
 30
0.0
  0
VERTEX
  5
49D
330
49B
100
AcDbEntity
  8
Drawing
 62
   250
420
  1842203
370
   100
100
AcDbVertex
100
AcDb2dVertex
 10
512.6945894213319
 20
-580.9212918346992
 30
0.0
  0
SEQEND
  5
49E
330
49B
100
AcDbEntity
  8
Drawing
 62
   250
420
  1842203
370
   100
  0
POLYLINE
  5
49F
330
DF
100
AcDbEntity
  8
Drawing
 62
   250
420
  1842203
370
   100
100
AcDb2dPolyline
 66
     1
 10
0.0
 20
0.0
 30
0.0
  0
VERTEX
  5
4A0
330
49F
100
AcDbEntity
  8
Drawing
 62
   250
420
  1842203
370
   100
100
AcDbVertex
100
AcDb2dVertex
 10
512.6945894213319
 20
-580.9212918346992
 30
0.0
  0
VERTEX
  5
4A1
330
49F
100
AcDbEntity
  8
Drawing
 62
   250
420
  1842203
370
   100
100
AcDbVertex
100
AcDb2dVertex
 10
512.6945894213319
 20
-573.9213228861889
 30
0.0
  0
SEQEND
  5
4A2
330
49F
100
AcDbEntity
  8
Drawing
 62
   250
420
  1842203
370
   100
  0
POLYLINE
  5
4A3
330
DF
100
AcDbEntity
  8
Drawing
 62
   250
420
  1842203
370
   100
100
AcDb2dPolyline
 66
     1
 10
0.0
 20
0.0
 30
0.0
  0
VERTEX
  5
4A4
330
4A3
100
AcDbEntity
  8
Drawing
 62
   250
420
  1842203
370
   100
100
AcDbVertex
100
AcDb2dVertex
 10
530.6948265776913
 20
-573.9213228861889
 30
0.0
  0
VERTEX
  5
4A5
330
4A3
100
AcDbEntity
  8
Drawing
 62
   250
420
  1842203
370
   100
100
AcDbVertex
100
AcDb2dVertex
 10
537.6947955262029
 20
-573.9213228861889
 30
0.0
  0
SEQEND
  5
4A6
330
4A3
100
AcDbEntity
  8
Drawing
 62
   250
420
  1842203
370
   100
  0
POLYLINE
  5
4A7
330
DF
100
AcDbEntity
  8
Drawing
 62
   250
420
  1842203
370
   100
100
AcDb2dPolyline
 66
     1
 10
0.0
 20
0.0
 30
0.0
  0
VERTEX
  5
4A8
330
4A7
100
AcDbEntity
  8
Drawing
 62
   250
420
  1842203
370
   100
100
AcDbVertex
100
AcDb2dVertex
 10
537.6947955262029
 20
-573.9213228861889
 30
0.0
  0
VERTEX
  5
4A9
330
4A7
100
AcDbEntity
  8
Drawing
 62
   250
420
  1842203
370
   100
100
AcDbVertex
100
AcDb2dVertex
 10
537.6947955262029
 20
-580.9212918346992
 30
0.0
  0
SEQEND
  5
4AA
330
4A7
100
AcDbEntity
  8
Drawing
 62
   250
420
  1842203
370
   100
  0
POLYLINE
  5
4AB
330
DF
100
AcDbEntity
  8
Drawing
 62
   250
420
  1842203
370
   100
100
AcDb2dPolyline
 66
     1
 10
0.0
 20
0.0
 30
0.0
  0
VERTEX
  5
4AC
330
4AB
100
AcDbEntity
  8
Drawing
 62
   250
420
  1842203
370
   100
100
AcDbVertex
100
AcDb2dVertex
 10
537.6947955262029
 20
-580.9212918346992
 30
0.0
  0
VERTEX
  5
4AD
330
4AB
100
AcDbEntity
  8
Drawing
 62
   250
420
  1842203
370
   100
100
AcDbVertex
100
AcDb2dVertex
 10
530.6948265776913
 20
-580.9212918346992
 30
0.0
  0
SEQEND
  5
4AE
330
4AB
100
AcDbEntity
  8
Drawing
 62
   250
420
  1842203
370
   100
  0
POLYLINE
  5
4AF
330
DF
100
AcDbEntity
  8
Drawing
 62
   250
420
  1842203
370
   100
100
AcDb2dPolyline
 66
     1
 10
0.0
 20
0.0
 30
0.0
  0
VERTEX
  5
4B0
330
4AF
100
AcDbEntity
  8
Drawing
 62
   250
420
  1842203
370
   100
100
AcDbVertex
100
AcDb2dVertex
 10
530.6948265776913
 20
-580.9212918346992
 30
0.0
  0
VERTEX
  5
4B1
330
4AF
100
AcDbEntity
  8
Drawing
 62
   250
420
  1842203
370
   100
100
AcDbVertex
100
AcDb2dVertex
 10
530.6948265776913
 20
-573.9213228861889
 30
0.0
  0
SEQEND
  5
4B2
330
4AF
100
AcDbEntity
  8
Drawing
 62
   250
420
  1842203
370
   100
  0
POLYLINE
  5
4B3
330
DF
100
AcDbEntity
  8
Drawing
 62
   250
420
  1842203
370
   100
100
AcDb2dPolyline
 66
     1
 10
0.0
 20
0.0
 30
0.0
  0
VERTEX
  5
4B4
330
4B3
100
AcDbEntity
  8
Drawing
 62
   250
420
  1842203
370
   100
100
AcDbVertex
100
AcDb2dVertex
 10
548.693970783258
 20
-573.9213228861889
 30
0.0
  0
VERTEX
  5
4B5
330
4B3
100
AcDbEntity
  8
Drawing
 62
   250
420
  1842203
370
   100
100
AcDbVertex
100
AcDb2dVertex
 10
555.6939562916302
 20
-573.9213228861889
 30
0.0
  0
SEQEND
  5
4B6
330
4B3
100
AcDbEntity
  8
Drawing
 62
   250
420
  1842203
370
   100
  0
POLYLINE
  5
4B7
330
DF
100
AcDbEntity
  8
Drawing
 62
   250
420
  1842203
370
   100
100
AcDb2dPolyline
 66
     1
 10
0.0
 20
0.0
 30
0.0
  0
VERTEX
  5
4B8
330
4B7
100
AcDbEntity
  8
Drawing
 62
   250
420
  1842203
370
   100
100
AcDbVertex
100
AcDb2dVertex
 10
555.6939562916302
 20
-573.9213228861889
 30
0.0
  0
VERTEX
  5
4B9
330
4B7
100
AcDbEntity
  8
Drawing
 62
   250
420
  1842203
370
   100
100
AcDbVertex
100
AcDb2dVertex
 10
555.6939562916302
 20
-580.9212918346992
 30
0.0
  0
SEQEND
  5
4BA
330
4B7
100
AcDbEntity
  8
Drawing
 62
   250
420
  1842203
370
   100
  0
POLYLINE
  5
4BB
330
DF
100
AcDbEntity
  8
Drawing
 62
   250
420
  1842203
370
   100
100
AcDb2dPolyline
 66
     1
 10
0.0
 20
0.0
 30
0.0
  0
VERTEX
  5
4BC
330
4BB
100
AcDbEntity
  8
Drawing
 62
   250
420
  1842203
370
   100
100
AcDbVertex
100
AcDb2dVertex
 10
555.6939562916302
 20
-580.9212918346992
 30
0.0
  0
VERTEX
  5
4BD
330
4BB
100
AcDbEntity
  8
Drawing
 62
   250
420
  1842203
370
   100
100
AcDbVertex
100
AcDb2dVertex
 10
548.693970783258
 20
-580.9212918346992
 30
0.0
  0
SEQEND
  5
4BE
330
4BB
100
AcDbEntity
  8
Drawing
 62
   250
420
  1842203
370
   100
  0
POLYLINE
  5
4BF
330
DF
100
AcDbEntity
  8
Drawing
 62
   250
420
  1842203
370
   100
100
AcDb2dPolyline
 66
     1
 10
0.0
 20
0.0
 30
0.0
  0
VERTEX
  5
4C0
330
4BF
100
AcDbEntity
  8
Drawing
 62
   250
420
  1842203
370
   100
100
AcDbVertex
100
AcDb2dVertex
 10
548.693970783258
 20
-580.9212918346992
 30
0.0
  0
VERTEX
  5
4C1
330
4BF
100
AcDbEntity
  8
Drawing
 62
   250
420
  1842203
370
   100
100
AcDbVertex
100
AcDb2dVertex
 10
548.693970783258
 20
-573.9213228861889
 30
0.0
  0
SEQEND
  5
4C2
330
4BF
100
AcDbEntity
  8
Drawing
 62
   250
420
  1842203
370
   100
  0
POLYLINE
  5
4C3
330
DF
100
AcDbEntity
  8
Drawing
 62
   250
420
  1842203
370
   100
100
AcDb2dPolyline
 66
     1
 10
0.0
 20
0.0
 30
0.0
  0
VERTEX
  5
4C4
330
4C3
100
AcDbEntity
  8
Drawing
 62
   250
420
  1842203
370
   100
100
AcDbVertex
100
AcDb2dVertex
 10
566.6942244994774
 20
-573.9213228861889
 30
0.0
  0
VERTEX
  5
4C5
330
4C3
100
AcDbEntity
  8
Drawing
 62
   250
420
  1842203
370
   100
100
AcDbVertex
100
AcDb2dVertex
 10
573.694193447989
 20
-573.9213228861889
 30
0.0
  0
SEQEND
  5
4C6
330
4C3
100
AcDbEntity
  8
Drawing
 62
   250
420
  1842203
370
   100
  0
POLYLINE
  5
4C7
330
DF
100
AcDbEntity
  8
Drawing
 62
   250
420
  1842203
370
   100
100
AcDb2dPolyline
 66
     1
 10
0.0
 20
0.0
 30
0.0
  0
VERTEX
  5
4C8
330
4C7
100
AcDbEntity
  8
Drawing
 62
   250
420
  1842203
370
   100
100
AcDbVertex
100
AcDb2dVertex
 10
573.694193447989
 20
-573.9213228861889
 30
0.0
  0
VERTEX
  5
4C9
330
4C7
100
AcDbEntity
  8
Drawing
 62
   250
420
  1842203
370
   100
100
AcDbVertex
100
AcDb2dVertex
 10
573.694193447989
 20
-580.9212918346992
 30
0.0
  0
SEQEND
  5
4CA
330
4C7
100
AcDbEntity
  8
Drawing
 62
   250
420
  1842203
370
   100
  0
POLYLINE
  5
4CB
330
DF
100
AcDbEntity
  8
Drawing
 62
   250
420
  1842203
370
   100
100
AcDb2dPolyline
 66
     1
 10
0.0
 20
0.0
 30
0.0
  0
VERTEX
  5
4CC
330
4CB
100
AcDbEntity
  8
Drawing
 62
   250
420
  1842203
370
   100
100
AcDbVertex
100
AcDb2dVertex
 10
573.694193447989
 20
-580.9212918346992
 30
0.0
  0
VERTEX
  5
4CD
330
4CB
100
AcDbEntity
  8
Drawing
 62
   250
420
  1842203
370
   100
100
AcDbVertex
100
AcDb2dVertex
 10
566.6942244994774
 20
-580.9212918346992
 30
0.0
  0
SEQEND
  5
4CE
330
4CB
100
AcDbEntity
  8
Drawing
 62
   250
420
  1842203
370
   100
  0
POLYLINE
  5
4CF
330
DF
100
AcDbEntity
  8
Drawing
 62
   250
420
  1842203
370
   100
100
AcDb2dPolyline
 66
     1
 10
0.0
 20
0.0
 30
0.0
  0
VERTEX
  5
4D0
330
4CF
100
AcDbEntity
  8
Drawing
 62
   250
420
  1842203
370
   100
100
AcDbVertex
100
AcDb2dVertex
 10
566.6942244994774
 20
-580.9212918346992
 30
0.0
  0
VERTEX
  5
4D1
330
4CF
100
AcDbEntity
  8
Drawing
 62
   250
420
  1842203
370
   100
100
AcDbVertex
100
AcDb2dVertex
 10
566.6942244994774
 20
-573.9213228861889
 30
0.0
  0
SEQEND
  5
4D2
330
4CF
100
AcDbEntity
  8
Drawing
 62
   250
420
  1842203
370
   100
  0
POLYLINE
  5
4D3
330
DF
100
AcDbEntity
  8
Drawing
 62
   250
420
  1842203
370
   100
100
AcDb2dPolyline
 66
     1
 10
0.0
 20
0.0
 30
0.0
  0
VERTEX
  5
4D4
330
4D3
100
AcDbEntity
  8
Drawing
 62
   250
420
  1842203
370
   100
100
AcDbVertex
100
AcDb2dVertex
 10
584.6944616558369
 20
-573.9213228861889
 30
0.0
  0
VERTEX
  5
4D5
330
4D3
100
AcDbEntity
  8
Drawing
 62
   250
420
  1842203
370
   100
100
AcDbVertex
100
AcDb2dVertex
 10
591.6944140444879
 20
-573.9213228861889
 30
0.0
  0
SEQEND
  5
4D6
330
4D3
100
AcDbEntity
  8
Drawing
 62
   250
420
  1842203
370
   100
  0
POLYLINE
  5
4D7
330
DF
100
AcDbEntity
  8
Drawing
 62
   250
420
  1842203
370
   100
100
AcDb2dPolyline
 66
     1
 10
0.0
 20
0.0
 30
0.0
  0
VERTEX
  5
4D8
330
4D7
100
AcDbEntity
  8
Drawing
 62
   250
420
  1842203
370
   100
100
AcDbVertex
100
AcDb2dVertex
 10
591.6944140444879
 20
-573.9213228861889
 30
0.0
  0
VERTEX
  5
4D9
330
4D7
100
AcDbEntity
  8
Drawing
 62
   250
420
  1842203
370
   100
100
AcDbVertex
100
AcDb2dVertex
 10
591.6944140444879
 20
-580.9212918346992
 30
0.0
  0
SEQEND
  5
4DA
330
4D7
100
AcDbEntity
  8
Drawing
 62
   250
420
  1842203
370
   100
  0
POLYLINE
  5
4DB
330
DF
100
AcDbEntity
  8
Drawing
 62
   250
420
  1842203
370
   100
100
AcDb2dPolyline
 66
     1
 10
0.0
 20
0.0
 30
0.0
  0
VERTEX
  5
4DC
330
4DB
100
AcDbEntity
  8
Drawing
 62
   250
420
  1842203
370
   100
100
AcDbVertex
100
AcDb2dVertex
 10
591.6944140444879
 20
-580.9212918346992
 30
0.0
  0
VERTEX
  5
4DD
330
4DB
100
AcDbEntity
  8
Drawing
 62
   250
420
  1842203
370
   100
100
AcDbVertex
100
AcDb2dVertex
 10
584.6944616558369
 20
-580.9212918346992
 30
0.0
  0
SEQEND
  5
4DE
330
4DB
100
AcDbEntity
  8
Drawing
 62
   250
420
  1842203
370
   100
  0
POLYLINE
  5
4DF
330
DF
100
AcDbEntity
  8
Drawing
 62
   250
420
  1842203
370
   100
100
AcDb2dPolyline
 66
     1
 10
0.0
 20
0.0
 30
0.0
  0
VERTEX
  5
4E0
330
4DF
100
AcDbEntity
  8
Drawing
 62
   250
420
  1842203
370
   100
100
AcDbVertex
100
AcDb2dVertex
 10
584.6944616558369
 20
-580.9212918346992
 30
0.0
  0
VERTEX
  5
4E1
330
4DF
100
AcDbEntity
  8
Drawing
 62
   250
420
  1842203
370
   100
100
AcDbVertex
100
AcDb2dVertex
 10
584.6944616558369
 20
-573.9213228861889
 30
0.0
  0
SEQEND
  5
4E2
330
4DF
100
AcDbEntity
  8
Drawing
 62
   250
420
  1842203
370
   100
  0
POLYLINE
  5
4E3
330
DF
100
AcDbEntity
  8
Drawing
 62
   250
420
  1842203
370
   100
100
AcDb2dPolyline
 66
     1
 10
0.0
 20
0.0
 30
0.0
  0
VERTEX
  5
4E4
330
4E3
100
AcDbEntity
  8
Drawing
 62
   250
420
  1842203
370
   100
100
AcDbVertex
100
AcDb2dVertex
 10
440.6947171868275
 20
-591.9204670917542
 30
0.0
  0
VERTEX
  5
4E5
330
4E3
100
AcDbEntity
  8
Drawing
 62
   250
420
  1842203
370
   100
100
AcDbVertex
100
AcDb2dVertex
 10
447.6946861353385
 20
-591.9204670917542
 30
0.0
  0
SEQEND
  5
4E6
330
4E3
100
AcDbEntity
  8
Drawing
 62
   250
420
  1842203
370
   100
  0
POLYLINE
  5
4E7
330
DF
100
AcDbEntity
  8
Drawing
 62
   250
420
  1842203
370
   100
100
AcDb2dPolyline
 66
     1
 10
0.0
 20
0.0
 30
0.0
  0
VERTEX
  5
4E8
330
4E7
100
AcDbEntity
  8
Drawing
 62
   250
420
  1842203
370
   100
100
AcDbVertex
100
AcDb2dVertex
 10
447.6946861353385
 20
-591.9204670917542
 30
0.0
  0
VERTEX
  5
4E9
330
4E7
100
AcDbEntity
  8
Drawing
 62
   250
420
  1842203
370
   100
100
AcDbVertex
100
AcDb2dVertex
 10
447.6946861353385
 20
-598.9204360402646
 30
0.0
  0
SEQEND
  5
4EA
330
4E7
100
AcDbEntity
  8
Drawing
 62
   250
420
  1842203
370
   100
  0
POLYLINE
  5
4EB
330
DF
100
AcDbEntity
  8
Drawing
 62
   250
420
  1842203
370
   100
100
AcDb2dPolyline
 66
     1
 10
0.0
 20
0.0
 30
0.0
  0
VERTEX
  5
4EC
330
4EB
100
AcDbEntity
  8
Drawing
 62
   250
420
  1842203
370
   100
100
AcDbVertex
100
AcDb2dVertex
 10
447.6946861353385
 20
-598.9204360402646
 30
0.0
  0
VERTEX
  5
4ED
330
4EB
100
AcDbEntity
  8
Drawing
 62
   250
420
  1842203
370
   100
100
AcDbVertex
100
AcDb2dVertex
 10
440.6947171868275
 20
-598.9204360402646
 30
0.0
  0
SEQEND
  5
4EE
330
4EB
100
AcDbEntity
  8
Drawing
 62
   250
420
  1842203
370
   100
  0
POLYLINE
  5
4EF
330
DF
100
AcDbEntity
  8
Drawing
 62
   250
420
  1842203
370
   100
100
AcDb2dPolyline
 66
     1
 10
0.0
 20
0.0
 30
0.0
  0
VERTEX
  5
4F0
330
4EF
100
AcDbEntity
  8
Drawing
 62
   250
420
  1842203
370
   100
100
AcDbVertex
100
AcDb2dVertex
 10
440.6947171868275
 20
-598.9204360402646
 30
0.0
  0
VERTEX
  5
4F1
330
4EF
100
AcDbEntity
  8
Drawing
 62
   250
420
  1842203
370
   100
100
AcDbVertex
100
AcDb2dVertex
 10
440.6947171868275
 20
-591.9204670917542
 30
0.0
  0
SEQEND
  5
4F2
330
4EF
100
AcDbEntity
  8
Drawing
 62
   250
420
  1842203
370
   100
  0
POLYLINE
  5
4F3
330
DF
100
AcDbEntity
  8
Drawing
 62
   250
420
  1842203
370
   100
100
AcDb2dPolyline
 66
     1
 10
0.0
 20
0.0
 30
0.0
  0
VERTEX
  5
4F4
330
4F3
100
AcDbEntity
  8
Drawing
 62
   250
420
  1842203
370
   100
100
AcDbVertex
100
AcDb2dVertex
 10
458.6949543431866
 20
-591.9204670917542
 30
0.0
  0
VERTEX
  5
4F5
330
4F3
100
AcDbEntity
  8
Drawing
 62
   250
420
  1842203
370
   100
100
AcDbVertex
100
AcDb2dVertex
 10
465.6949232916979
 20
-591.9204670917542
 30
0.0
  0
SEQEND
  5
4F6
330
4F3
100
AcDbEntity
  8
Drawing
 62
   250
420
  1842203
370
   100
  0
POLYLINE
  5
4F7
330
DF
100
AcDbEntity
  8
Drawing
 62
   250
420
  1842203
370
   100
100
AcDb2dPolyline
 66
     1
 10
0.0
 20
0.0
 30
0.0
  0
VERTEX
  5
4F8
330
4F7
100
AcDbEntity
  8
Drawing
 62
   250
420
  1842203
370
   100
100
AcDbVertex
100
AcDb2dVertex
 10
465.6949232916979
 20
-591.9204670917542
 30
0.0
  0
VERTEX
  5
4F9
330
4F7
100
AcDbEntity
  8
Drawing
 62
   250
420
  1842203
370
   100
100
AcDbVertex
100
AcDb2dVertex
 10
465.6949232916979
 20
-598.9204360402646
 30
0.0
  0
SEQEND
  5
4FA
330
4F7
100
AcDbEntity
  8
Drawing
 62
   250
420
  1842203
370
   100
  0
POLYLINE
  5
4FB
330
DF
100
AcDbEntity
  8
Drawing
 62
   250
420
  1842203
370
   100
100
AcDb2dPolyline
 66
     1
 10
0.0
 20
0.0
 30
0.0
  0
VERTEX
  5
4FC
330
4FB
100
AcDbEntity
  8
Drawing
 62
   250
420
  1842203
370
   100
100
AcDbVertex
100
AcDb2dVertex
 10
465.6949232916979
 20
-598.9204360402646
 30
0.0
  0
VERTEX
  5
4FD
330
4FB
100
AcDbEntity
  8
Drawing
 62
   250
420
  1842203
370
   100
100
AcDbVertex
100
AcDb2dVertex
 10
458.6949543431866
 20
-598.9204360402646
 30
0.0
  0
SEQEND
  5
4FE
330
4FB
100
AcDbEntity
  8
Drawing
 62
   250
420
  1842203
370
   100
  0
POLYLINE
  5
4FF
330
DF
100
AcDbEntity
  8
Drawing
 62
   250
420
  1842203
370
   100
100
AcDb2dPolyline
 66
     1
 10
0.0
 20
0.0
 30
0.0
  0
VERTEX
  5
500
330
4FF
100
AcDbEntity
  8
Drawing
 62
   250
420
  1842203
370
   100
100
AcDbVertex
100
AcDb2dVertex
 10
458.6949543431866
 20
-598.9204360402646
 30
0.0
  0
VERTEX
  5
501
330
4FF
100
AcDbEntity
  8
Drawing
 62
   250
420
  1842203
370
   100
100
AcDbVertex
100
AcDb2dVertex
 10
458.6949543431866
 20
-591.9204670917542
 30
0.0
  0
SEQEND
  5
502
330
4FF
100
AcDbEntity
  8
Drawing
 62
   250
420
  1842203
370
   100
  0
POLYLINE
  5
503
330
DF
100
AcDbEntity
  8
Drawing
 62
   250
420
  1842203
370
   100
100
AcDb2dPolyline
 66
     1
 10
0.0
 20
0.0
 30
0.0
  0
VERTEX
  5
504
330
503
100
AcDbEntity
  8
Drawing
 62
   250
420
  1842203
370
   100
100
AcDbVertex
100
AcDb2dVertex
 10
476.6941151086139
 20
-591.9204670917542
 30
0.0
  0
VERTEX
  5
505
330
503
100
AcDbEntity
  8
Drawing
 62
   250
420
  1842203
370
   100
100
AcDbVertex
100
AcDb2dVertex
 10
483.6940840571255
 20
-591.9204670917542
 30
0.0
  0
SEQEND
  5
506
330
503
100
AcDbEntity
  8
Drawing
 62
   250
420
  1842203
370
   100
  0
POLYLINE
  5
507
330
DF
100
AcDbEntity
  8
Drawing
 62
   250
420
  1842203
370
   100
100
AcDb2dPolyline
 66
     1
 10
0.0
 20
0.0
 30
0.0
  0
VERTEX
  5
508
330
507
100
AcDbEntity
  8
Drawing
 62
   250
420
  1842203
370
   100
100
AcDbVertex
100
AcDb2dVertex
 10
483.6940840571255
 20
-591.9204670917542
 30
0.0
  0
VERTEX
  5
509
330
507
100
AcDbEntity
  8
Drawing
 62
   250
420
  1842203
370
   100
100
AcDbVertex
100
AcDb2dVertex
 10
483.6940840571255
 20
-598.9204360402646
 30
0.0
  0
SEQEND
  5
50A
330
507
100
AcDbEntity
  8
Drawing
 62
   250
420
  1842203
370
   100
  0
POLYLINE
  5
50B
330
DF
100
AcDbEntity
  8
Drawing
 62
   250
420
  1842203
370
   100
100
AcDb2dPolyline
 66
     1
 10
0.0
 20
0.0
 30
0.0
  0
VERTEX
  5
50C
330
50B
100
AcDbEntity
  8
Drawing
 62
   250
420
  1842203
370
   100
100
AcDbVertex
100
AcDb2dVertex
 10
483.6940840571255
 20
-598.9204360402646
 30
0.0
  0
VERTEX
  5
50D
330
50B
100
AcDbEntity
  8
Drawing
 62
   250
420
  1842203
370
   100
100
AcDbVertex
100
AcDb2dVertex
 10
476.6941151086139
 20
-598.9204360402646
 30
0.0
  0
SEQEND
  5
50E
330
50B
100
AcDbEntity
  8
Drawing
 62
   250
420
  1842203
370
   100
  0
POLYLINE
  5
50F
330
DF
100
AcDbEntity
  8
Drawing
 62
   250
420
  1842203
370
   100
100
AcDb2dPolyline
 66
     1
 10
0.0
 20
0.0
 30
0.0
  0
VERTEX
  5
510
330
50F
100
AcDbEntity
  8
Drawing
 62
   250
420
  1842203
370
   100
100
AcDbVertex
100
AcDb2dVertex
 10
476.6941151086139
 20
-598.9204360402646
 30
0.0
  0
VERTEX
  5
511
330
50F
100
AcDbEntity
  8
Drawing
 62
   250
420
  1842203
370
   100
100
AcDbVertex
100
AcDb2dVertex
 10
476.6941151086139
 20
-591.9204670917542
 30
0.0
  0
SEQEND
  5
512
330
50F
100
AcDbEntity
  8
Drawing
 62
   250
420
  1842203
370
   100
  0
POLYLINE
  5
513
330
DF
100
AcDbEntity
  8
Drawing
 62
   250
420
  1842203
370
   100
100
AcDb2dPolyline
 66
     1
 10
0.0
 20
0.0
 30
0.0
  0
VERTEX
  5
514
330
513
100
AcDbEntity
  8
Drawing
 62
   250
420
  1842203
370
   100
100
AcDbVertex
100
AcDb2dVertex
 10
494.694352264973
 20
-591.9204670917542
 30
0.0
  0
VERTEX
  5
515
330
513
100
AcDbEntity
  8
Drawing
 62
   250
420
  1842203
370
   100
100
AcDbVertex
100
AcDb2dVertex
 10
501.6943212134847
 20
-591.9204670917542
 30
0.0
  0
SEQEND
  5
516
330
513
100
AcDbEntity
  8
Drawing
 62
   250
420
  1842203
370
   100
  0
POLYLINE
  5
517
330
DF
100
AcDbEntity
  8
Drawing
 62
   250
420
  1842203
370
   100
100
AcDb2dPolyline
 66
     1
 10
0.0
 20
0.0
 30
0.0
  0
VERTEX
  5
518
330
517
100
AcDbEntity
  8
Drawing
 62
   250
420
  1842203
370
   100
100
AcDbVertex
100
AcDb2dVertex
 10
501.6943212134847
 20
-591.9204670917542
 30
0.0
  0
VERTEX
  5
519
330
517
100
AcDbEntity
  8
Drawing
 62
   250
420
  1842203
370
   100
100
AcDbVertex
100
AcDb2dVertex
 10
501.6943212134847
 20
-598.9204360402646
 30
0.0
  0
SEQEND
  5
51A
330
517
100
AcDbEntity
  8
Drawing
 62
   250
420
  1842203
370
   100
  0
POLYLINE
  5
51B
330
DF
100
AcDbEntity
  8
Drawing
 62
   250
420
  1842203
370
   100
100
AcDb2dPolyline
 66
     1
 10
0.0
 20
0.0
 30
0.0
  0
VERTEX
  5
51C
330
51B
100
AcDbEntity
  8
Drawing
 62
   250
420
  1842203
370
   100
100
AcDbVertex
100
AcDb2dVertex
 10
501.6943212134847
 20
-598.9204360402646
 30
0.0
  0
VERTEX
  5
51D
330
51B
100
AcDbEntity
  8
Drawing
 62
   250
420
  1842203
370
   100
100
AcDbVertex
100
AcDb2dVertex
 10
494.694352264973
 20
-598.9204360402646
 30
0.0
  0
SEQEND
  5
51E
330
51B
100
AcDbEntity
  8
Drawing
 62
   250
420
  1842203
370
   100
  0
POLYLINE
  5
51F
330
DF
100
AcDbEntity
  8
Drawing
 62
   250
420
  1842203
370
   100
100
AcDb2dPolyline
 66
     1
 10
0.0
 20
0.0
 30
0.0
  0
VERTEX
  5
520
330
51F
100
AcDbEntity
  8
Drawing
 62
   250
420
  1842203
370
   100
100
AcDbVertex
100
AcDb2dVertex
 10
494.694352264973
 20
-598.9204360402646
 30
0.0
  0
VERTEX
  5
521
330
51F
100
AcDbEntity
  8
Drawing
 62
   250
420
  1842203
370
   100
100
AcDbVertex
100
AcDb2dVertex
 10
494.694352264973
 20
-591.9204670917542
 30
0.0
  0
SEQEND
  5
522
330
51F
100
AcDbEntity
  8
Drawing
 62
   250
420
  1842203
370
   100
  0
POLYLINE
  5
523
330
DF
100
AcDbEntity
  8
Drawing
 62
   250
420
  1842203
370
   100
100
AcDb2dPolyline
 66
     1
 10
0.0
 20
0.0
 30
0.0
  0
VERTEX
  5
524
330
523
100
AcDbEntity
  8
Drawing
 62
   250
420
  1842203
370
   100
100
AcDbVertex
100
AcDb2dVertex
 10
512.6945894213319
 20
-591.9204670917542
 30
0.0
  0
VERTEX
  5
525
330
523
100
AcDbEntity
  8
Drawing
 62
   250
420
  1842203
370
   100
100
AcDbVertex
100
AcDb2dVertex
 10
519.6945583698435
 20
-591.9204670917542
 30
0.0
  0
SEQEND
  5
526
330
523
100
AcDbEntity
  8
Drawing
 62
   250
420
  1842203
370
   100
  0
POLYLINE
  5
527
330
DF
100
AcDbEntity
  8
Drawing
 62
   250
420
  1842203
370
   100
100
AcDb2dPolyline
 66
     1
 10
0.0
 20
0.0
 30
0.0
  0
VERTEX
  5
528
330
527
100
AcDbEntity
  8
Drawing
 62
   250
420
  1842203
370
   100
100
AcDbVertex
100
AcDb2dVertex
 10
519.6945583698435
 20
-591.9204670917542
 30
0.0
  0
VERTEX
  5
529
330
527
100
AcDbEntity
  8
Drawing
 62
   250
420
  1842203
370
   100
100
AcDbVertex
100
AcDb2dVertex
 10
519.6945583698435
 20
-598.9204360402646
 30
0.0
  0
SEQEND
  5
52A
330
527
100
AcDbEntity
  8
Drawing
 62
   250
420
  1842203
370
   100
  0
POLYLINE
  5
52B
330
DF
100
AcDbEntity
  8
Drawing
 62
   250
420
  1842203
370
   100
100
AcDb2dPolyline
 66
     1
 10
0.0
 20
0.0
 30
0.0
  0
VERTEX
  5
52C
330
52B
100
AcDbEntity
  8
Drawing
 62
   250
420
  1842203
370
   100
100
AcDbVertex
100
AcDb2dVertex
 10
519.6945583698435
 20
-598.9204360402646
 30
0.0
  0
VERTEX
  5
52D
330
52B
100
AcDbEntity
  8
Drawing
 62
   250
420
  1842203
370
   100
100
AcDbVertex
100
AcDb2dVertex
 10
512.6945894213319
 20
-598.9204360402646
 30
0.0
  0
SEQEND
  5
52E
330
52B
100
AcDbEntity
  8
Drawing
 62
   250
420
  1842203
370
   100
  0
POLYLINE
  5
52F
330
DF
100
AcDbEntity
  8
Drawing
 62
   250
420
  1842203
370
   100
100
AcDb2dPolyline
 66
     1
 10
0.0
 20
0.0
 30
0.0
  0
VERTEX
  5
530
330
52F
100
AcDbEntity
  8
Drawing
 62
   250
420
  1842203
370
   100
100
AcDbVertex
100
AcDb2dVertex
 10
512.6945894213319
 20
-598.9204360402646
 30
0.0
  0
VERTEX
  5
531
330
52F
100
AcDbEntity
  8
Drawing
 62
   250
420
  1842203
370
   100
100
AcDbVertex
100
AcDb2dVertex
 10
512.6945894213319
 20
-591.9204670917542
 30
0.0
  0
SEQEND
  5
532
330
52F
100
AcDbEntity
  8
Drawing
 62
   250
420
  1842203
370
   100
  0
POLYLINE
  5
533
330
DF
100
AcDbEntity
  8
Drawing
 62
   250
420
  1842203
370
   100
100
AcDb2dPolyline
 66
     1
 10
0.0
 20
0.0
 30
0.0
  0
VERTEX
  5
534
330
533
100
AcDbEntity
  8
Drawing
 62
   250
420
  1842203
370
   100
100
AcDbVertex
100
AcDb2dVertex
 10
530.6948265776913
 20
-591.9204670917542
 30
0.0
  0
VERTEX
  5
535
330
533
100
AcDbEntity
  8
Drawing
 62
   250
420
  1842203
370
   100
100
AcDbVertex
100
AcDb2dVertex
 10
537.6947955262029
 20
-591.9204670917542
 30
0.0
  0
SEQEND
  5
536
330
533
100
AcDbEntity
  8
Drawing
 62
   250
420
  1842203
370
   100
  0
POLYLINE
  5
537
330
DF
100
AcDbEntity
  8
Drawing
 62
   250
420
  1842203
370
   100
100
AcDb2dPolyline
 66
     1
 10
0.0
 20
0.0
 30
0.0
  0
VERTEX
  5
538
330
537
100
AcDbEntity
  8
Drawing
 62
   250
420
  1842203
370
   100
100
AcDbVertex
100
AcDb2dVertex
 10
537.6947955262029
 20
-591.9204670917542
 30
0.0
  0
VERTEX
  5
539
330
537
100
AcDbEntity
  8
Drawing
 62
   250
420
  1842203
370
   100
100
AcDbVertex
100
AcDb2dVertex
 10
537.6947955262029
 20
-598.9204360402646
 30
0.0
  0
SEQEND
  5
53A
330
537
100
AcDbEntity
  8
Drawing
 62
   250
420
  1842203
370
   100
  0
POLYLINE
  5
53B
330
DF
100
AcDbEntity
  8
Drawing
 62
   250
420
  1842203
370
   100
100
AcDb2dPolyline
 66
     1
 10
0.0
 20
0.0
 30
0.0
  0
VERTEX
  5
53C
330
53B
100
AcDbEntity
  8
Drawing
 62
   250
420
  1842203
370
   100
100
AcDbVertex
100
AcDb2dVertex
 10
537.6947955262029
 20
-598.9204360402646
 30
0.0
  0
VERTEX
  5
53D
330
53B
100
AcDbEntity
  8
Drawing
 62
   250
420
  1842203
370
   100
100
AcDbVertex
100
AcDb2dVertex
 10
530.6948265776913
 20
-598.9204360402646
 30
0.0
  0
SEQEND
  5
53E
330
53B
100
AcDbEntity
  8
Drawing
 62
   250
420
  1842203
370
   100
  0
POLYLINE
  5
53F
330
DF
100
AcDbEntity
  8
Drawing
 62
   250
420
  1842203
370
   100
100
AcDb2dPolyline
 66
     1
 10
0.0
 20
0.0
 30
0.0
  0
VERTEX
  5
540
330
53F
100
AcDbEntity
  8
Drawing
 62
   250
420
  1842203
370
   100
100
AcDbVertex
100
AcDb2dVertex
 10
530.6948265776913
 20
-598.9204360402646
 30
0.0
  0
VERTEX
  5
541
330
53F
100
AcDbEntity
  8
Drawing
 62
   250
420
  1842203
370
   100
100
AcDbVertex
100
AcDb2dVertex
 10
530.6948265776913
 20
-591.9204670917542
 30
0.0
  0
SEQEND
  5
542
330
53F
100
AcDbEntity
  8
Drawing
 62
   250
420
  1842203
370
   100
  0
POLYLINE
  5
543
330
DF
100
AcDbEntity
  8
Drawing
 62
   250
420
  1842203
370
   100
100
AcDb2dPolyline
 66
     1
 10
0.0
 20
0.0
 30
0.0
  0
VERTEX
  5
544
330
543
100
AcDbEntity
  8
Drawing
 62
   250
420
  1842203
370
   100
100
AcDbVertex
100
AcDb2dVertex
 10
548.693970783258
 20
-591.9204670917542
 30
0.0
  0
VERTEX
  5
545
330
543
100
AcDbEntity
  8
Drawing
 62
   250
420
  1842203
370
   100
100
AcDbVertex
100
AcDb2dVertex
 10
555.6939562916302
 20
-591.9204670917542
 30
0.0
  0
SEQEND
  5
546
330
543
100
AcDbEntity
  8
Drawing
 62
   250
420
  1842203
370
   100
  0
POLYLINE
  5
547
330
DF
100
AcDbEntity
  8
Drawing
 62
   250
420
  1842203
370
   100
100
AcDb2dPolyline
 66
     1
 10
0.0
 20
0.0
 30
0.0
  0
VERTEX
  5
548
330
547
100
AcDbEntity
  8
Drawing
 62
   250
420
  1842203
370
   100
100
AcDbVertex
100
AcDb2dVertex
 10
555.6939562916302
 20
-591.9204670917542
 30
0.0
  0
VERTEX
  5
549
330
547
100
AcDbEntity
  8
Drawing
 62
   250
420
  1842203
370
   100
100
AcDbVertex
100
AcDb2dVertex
 10
555.6939562916302
 20
-598.9204360402646
 30
0.0
  0
SEQEND
  5
54A
330
547
100
AcDbEntity
  8
Drawing
 62
   250
420
  1842203
370
   100
  0
POLYLINE
  5
54B
330
DF
100
AcDbEntity
  8
Drawing
 62
   250
420
  1842203
370
   100
100
AcDb2dPolyline
 66
     1
 10
0.0
 20
0.0
 30
0.0
  0
VERTEX
  5
54C
330
54B
100
AcDbEntity
  8
Drawing
 62
   250
420
  1842203
370
   100
100
AcDbVertex
100
AcDb2dVertex
 10
555.6939562916302
 20
-598.9204360402646
 30
0.0
  0
VERTEX
  5
54D
330
54B
100
AcDbEntity
  8
Drawing
 62
   250
420
  1842203
370
   100
100
AcDbVertex
100
AcDb2dVertex
 10
548.693970783258
 20
-598.9204360402646
 30
0.0
  0
SEQEND
  5
54E
330
54B
100
AcDbEntity
  8
Drawing
 62
   250
420
  1842203
370
   100
  0
POLYLINE
  5
54F
330
DF
100
AcDbEntity
  8
Drawing
 62
   250
420
  1842203
370
   100
100
AcDb2dPolyline
 66
     1
 10
0.0
 20
0.0
 30
0.0
  0
VERTEX
  5
550
330
54F
100
AcDbEntity
  8
Drawing
 62
   250
420
  1842203
370
   100
100
AcDbVertex
100
AcDb2dVertex
 10
548.693970783258
 20
-598.9204360402646
 30
0.0
  0
VERTEX
  5
551
330
54F
100
AcDbEntity
  8
Drawing
 62
   250
420
  1842203
370
   100
100
AcDbVertex
100
AcDb2dVertex
 10
548.693970783258
 20
-591.9204670917542
 30
0.0
  0
SEQEND
  5
552
330
54F
100
AcDbEntity
  8
Drawing
 62
   250
420
  1842203
370
   100
  0
POLYLINE
  5
553
330
DF
100
AcDbEntity
  8
Drawing
 62
   250
420
  1842203
370
   100
100
AcDb2dPolyline
 66
     1
 10
0.0
 20
0.0
 30
0.0
  0
VERTEX
  5
554
330
553
100
AcDbEntity
  8
Drawing
 62
   250
420
  1842203
370
   100
100
AcDbVertex
100
AcDb2dVertex
 10
566.6942244994774
 20
-591.9204670917542
 30
0.0
  0
VERTEX
  5
555
330
553
100
AcDbEntity
  8
Drawing
 62
   250
420
  1842203
370
   100
100
AcDbVertex
100
AcDb2dVertex
 10
573.694193447989
 20
-591.9204670917542
 30
0.0
  0
SEQEND
  5
556
330
553
100
AcDbEntity
  8
Drawing
 62
   250
420
  1842203
370
   100
  0
POLYLINE
  5
557
330
DF
100
AcDbEntity
  8
Drawing
 62
   250
420
  1842203
370
   100
100
AcDb2dPolyline
 66
     1
 10
0.0
 20
0.0
 30
0.0
  0
VERTEX
  5
558
330
557
100
AcDbEntity
  8
Drawing
 62
   250
420
  1842203
370
   100
100
AcDbVertex
100
AcDb2dVertex
 10
573.694193447989
 20
-591.9204670917542
 30
0.0
  0
VERTEX
  5
559
330
557
100
AcDbEntity
  8
Drawing
 62
   250
420
  1842203
370
   100
100
AcDbVertex
100
AcDb2dVertex
 10
573.694193447989
 20
-598.9204360402646
 30
0.0
  0
SEQEND
  5
55A
330
557
100
AcDbEntity
  8
Drawing
 62
   250
420
  1842203
370
   100
  0
POLYLINE
  5
55B
330
DF
100
AcDbEntity
  8
Drawing
 62
   250
420
  1842203
370
   100
100
AcDb2dPolyline
 66
     1
 10
0.0
 20
0.0
 30
0.0
  0
VERTEX
  5
55C
330
55B
100
AcDbEntity
  8
Drawing
 62
   250
420
  1842203
370
   100
100
AcDbVertex
100
AcDb2dVertex
 10
573.694193447989
 20
-598.9204360402646
 30
0.0
  0
VERTEX
  5
55D
330
55B
100
AcDbEntity
  8
Drawing
 62
   250
420
  1842203
370
   100
100
AcDbVertex
100
AcDb2dVertex
 10
566.6942244994774
 20
-598.9204360402646
 30
0.0
  0
SEQEND
  5
55E
330
55B
100
AcDbEntity
  8
Drawing
 62
   250
420
  1842203
370
   100
  0
POLYLINE
  5
55F
330
DF
100
AcDbEntity
  8
Drawing
 62
   250
420
  1842203
370
   100
100
AcDb2dPolyline
 66
     1
 10
0.0
 20
0.0
 30
0.0
  0
VERTEX
  5
560
330
55F
100
AcDbEntity
  8
Drawing
 62
   250
420
  1842203
370
   100
100
AcDbVertex
100
AcDb2dVertex
 10
566.6942244994774
 20
-598.9204360402646
 30
0.0
  0
VERTEX
  5
561
330
55F
100
AcDbEntity
  8
Drawing
 62
   250
420
  1842203
370
   100
100
AcDbVertex
100
AcDb2dVertex
 10
566.6942244994774
 20
-591.9204670917542
 30
0.0
  0
SEQEND
  5
562
330
55F
100
AcDbEntity
  8
Drawing
 62
   250
420
  1842203
370
   100
  0
POLYLINE
  5
563
330
DF
100
AcDbEntity
  8
Drawing
 62
   250
420
  1842203
370
   100
100
AcDb2dPolyline
 66
     1
 10
0.0
 20
0.0
 30
0.0
  0
VERTEX
  5
564
330
563
100
AcDbEntity
  8
Drawing
 62
   250
420
  1842203
370
   100
100
AcDbVertex
100
AcDb2dVertex
 10
584.6944616558369
 20
-591.9204670917542
 30
0.0
  0
VERTEX
  5
565
330
563
100
AcDbEntity
  8
Drawing
 62
   250
420
  1842203
370
   100
100
AcDbVertex
100
AcDb2dVertex
 10
591.6944140444879
 20
-591.9204670917542
 30
0.0
  0
SEQEND
  5
566
330
563
100
AcDbEntity
  8
Drawing
 62
   250
420
  1842203
370
   100
  0
POLYLINE
  5
567
330
DF
100
AcDbEntity
  8
Drawing
 62
   250
420
  1842203
370
   100
100
AcDb2dPolyline
 66
     1
 10
0.0
 20
0.0
 30
0.0
  0
VERTEX
  5
568
330
567
100
AcDbEntity
  8
Drawing
 62
   250
420
  1842203
370
   100
100
AcDbVertex
100
AcDb2dVertex
 10
591.6944140444879
 20
-591.9204670917542
 30
0.0
  0
VERTEX
  5
569
330
567
100
AcDbEntity
  8
Drawing
 62
   250
420
  1842203
370
   100
100
AcDbVertex
100
AcDb2dVertex
 10
591.6944140444879
 20
-598.9204360402646
 30
0.0
  0
SEQEND
  5
56A
330
567
100
AcDbEntity
  8
Drawing
 62
   250
420
  1842203
370
   100
  0
POLYLINE
  5
56B
330
DF
100
AcDbEntity
  8
Drawing
 62
   250
420
  1842203
370
   100
100
AcDb2dPolyline
 66
     1
 10
0.0
 20
0.0
 30
0.0
  0
VERTEX
  5
56C
330
56B
100
AcDbEntity
  8
Drawing
 62
   250
420
  1842203
370
   100
100
AcDbVertex
100
AcDb2dVertex
 10
591.6944140444879
 20
-598.9204360402646
 30
0.0
  0
VERTEX
  5
56D
330
56B
100
AcDbEntity
  8
Drawing
 62
   250
420
  1842203
370
   100
100
AcDbVertex
100
AcDb2dVertex
 10
584.6944616558369
 20
-598.9204360402646
 30
0.0
  0
SEQEND
  5
56E
330
56B
100
AcDbEntity
  8
Drawing
 62
   250
420
  1842203
370
   100
  0
POLYLINE
  5
56F
330
DF
100
AcDbEntity
  8
Drawing
 62
   250
420
  1842203
370
   100
100
AcDb2dPolyline
 66
     1
 10
0.0
 20
0.0
 30
0.0
  0
VERTEX
  5
570
330
56F
100
AcDbEntity
  8
Drawing
 62
   250
420
  1842203
370
   100
100
AcDbVertex
100
AcDb2dVertex
 10
584.6944616558369
 20
-598.9204360402646
 30
0.0
  0
VERTEX
  5
571
330
56F
100
AcDbEntity
  8
Drawing
 62
   250
420
  1842203
370
   100
100
AcDbVertex
100
AcDb2dVertex
 10
584.6944616558369
 20
-591.9204670917542
 30
0.0
  0
SEQEND
  5
572
330
56F
100
AcDbEntity
  8
Drawing
 62
   250
420
  1842203
370
   100
  0
POLYLINE
  5
573
330
DF
100
AcDbEntity
  8
Drawing
 62
   250
420
  1842203
370
   100
100
AcDb2dPolyline
 66
     1
 10
0.0
 20
0.0
 30
0.0
  0
VERTEX
  5
574
330
573
100
AcDbEntity
  8
Drawing
 62
   250
420
  1842203
370
   100
100
AcDbVertex
100
AcDb2dVertex
 10
440.6947171868275
 20
-609.9207042481137
 30
0.0
  0
VERTEX
  5
575
330
573
100
AcDbEntity
  8
Drawing
 62
   250
420
  1842203
370
   100
100
AcDbVertex
100
AcDb2dVertex
 10
447.6946861353385
 20
-609.9207042481137
 30
0.0
  0
SEQEND
  5
576
330
573
100
AcDbEntity
  8
Drawing
 62
   250
420
  1842203
370
   100
  0
POLYLINE
  5
577
330
DF
100
AcDbEntity
  8
Drawing
 62
   250
420
  1842203
370
   100
100
AcDb2dPolyline
 66
     1
 10
0.0
 20
0.0
 30
0.0
  0
VERTEX
  5
578
330
577
100
AcDbEntity
  8
Drawing
 62
   250
420
  1842203
370
   100
100
AcDbVertex
100
AcDb2dVertex
 10
447.6946861353385
 20
-609.9207042481137
 30
0.0
  0
VERTEX
  5
579
330
577
100
AcDbEntity
  8
Drawing
 62
   250
420
  1842203
370
   100
100
AcDbVertex
100
AcDb2dVertex
 10
447.6946861353385
 20
-616.9206731966253
 30
0.0
  0
SEQEND
  5
57A
330
577
100
AcDbEntity
  8
Drawing
 62
   250
420
  1842203
370
   100
  0
POLYLINE
  5
57B
330
DF
100
AcDbEntity
  8
Drawing
 62
   250
420
  1842203
370
   100
100
AcDb2dPolyline
 66
     1
 10
0.0
 20
0.0
 30
0.0
  0
VERTEX
  5
57C
330
57B
100
AcDbEntity
  8
Drawing
 62
   250
420
  1842203
370
   100
100
AcDbVertex
100
AcDb2dVertex
 10
447.6946861353385
 20
-616.9206731966253
 30
0.0
  0
VERTEX
  5
57D
330
57B
100
AcDbEntity
  8
Drawing
 62
   250
420
  1842203
370
   100
100
AcDbVertex
100
AcDb2dVertex
 10
440.6947171868275
 20
-616.9206731966253
 30
0.0
  0
SEQEND
  5
57E
330
57B
100
AcDbEntity
  8
Drawing
 62
   250
420
  1842203
370
   100
  0
POLYLINE
  5
57F
330
DF
100
AcDbEntity
  8
Drawing
 62
   250
420
  1842203
370
   100
100
AcDb2dPolyline
 66
     1
 10
0.0
 20
0.0
 30
0.0
  0
VERTEX
  5
580
330
57F
100
AcDbEntity
  8
Drawing
 62
   250
420
  1842203
370
   100
100
AcDbVertex
100
AcDb2dVertex
 10
440.6947171868275
 20
-616.9206731966253
 30
0.0
  0
VERTEX
  5
581
330
57F
100
AcDbEntity
  8
Drawing
 62
   250
420
  1842203
370
   100
100
AcDbVertex
100
AcDb2dVertex
 10
440.6947171868275
 20
-609.9207042481137
 30
0.0
  0
SEQEND
  5
582
330
57F
100
AcDbEntity
  8
Drawing
 62
   250
420
  1842203
370
   100
  0
POLYLINE
  5
583
330
DF
100
AcDbEntity
  8
Drawing
 62
   250
420
  1842203
370
   100
100
AcDb2dPolyline
 66
     1
 10
0.0
 20
0.0
 30
0.0
  0
VERTEX
  5
584
330
583
100
AcDbEntity
  8
Drawing
 62
   250
420
  1842203
370
   100
100
AcDbVertex
100
AcDb2dVertex
 10
458.6949543431866
 20
-609.9207042481137
 30
0.0
  0
VERTEX
  5
585
330
583
100
AcDbEntity
  8
Drawing
 62
   250
420
  1842203
370
   100
100
AcDbVertex
100
AcDb2dVertex
 10
465.6949232916979
 20
-609.9207042481137
 30
0.0
  0
SEQEND
  5
586
330
583
100
AcDbEntity
  8
Drawing
 62
   250
420
  1842203
370
   100
  0
POLYLINE
  5
587
330
DF
100
AcDbEntity
  8
Drawing
 62
   250
420
  1842203
370
   100
100
AcDb2dPolyline
 66
     1
 10
0.0
 20
0.0
 30
0.0
  0
VERTEX
  5
588
330
587
100
AcDbEntity
  8
Drawing
 62
   250
420
  1842203
370
   100
100
AcDbVertex
100
AcDb2dVertex
 10
465.6949232916979
 20
-609.9207042481137
 30
0.0
  0
VERTEX
  5
589
330
587
100
AcDbEntity
  8
Drawing
 62
   250
420
  1842203
370
   100
100
AcDbVertex
100
AcDb2dVertex
 10
465.6949232916979
 20
-616.9206731966253
 30
0.0
  0
SEQEND
  5
58A
330
587
100
AcDbEntity
  8
Drawing
 62
   250
420
  1842203
370
   100
  0
POLYLINE
  5
58B
330
DF
100
AcDbEntity
  8
Drawing
 62
   250
420
  1842203
370
   100
100
AcDb2dPolyline
 66
     1
 10
0.0
 20
0.0
 30
0.0
  0
VERTEX
  5
58C
330
58B
100
AcDbEntity
  8
Drawing
 62
   250
420
  1842203
370
   100
100
AcDbVertex
100
AcDb2dVertex
 10
465.6949232916979
 20
-616.9206731966253
 30
0.0
  0
VERTEX
  5
58D
330
58B
100
AcDbEntity
  8
Drawing
 62
   250
420
  1842203
370
   100
100
AcDbVertex
100
AcDb2dVertex
 10
458.6949543431866
 20
-616.9206731966253
 30
0.0
  0
SEQEND
  5
58E
330
58B
100
AcDbEntity
  8
Drawing
 62
   250
420
  1842203
370
   100
  0
POLYLINE
  5
58F
330
DF
100
AcDbEntity
  8
Drawing
 62
   250
420
  1842203
370
   100
100
AcDb2dPolyline
 66
     1
 10
0.0
 20
0.0
 30
0.0
  0
VERTEX
  5
590
330
58F
100
AcDbEntity
  8
Drawing
 62
   250
420
  1842203
370
   100
100
AcDbVertex
100
AcDb2dVertex
 10
458.6949543431866
 20
-616.9206731966253
 30
0.0
  0
VERTEX
  5
591
330
58F
100
AcDbEntity
  8
Drawing
 62
   250
420
  1842203
370
   100
100
AcDbVertex
100
AcDb2dVertex
 10
458.6949543431866
 20
-609.9207042481137
 30
0.0
  0
SEQEND
  5
592
330
58F
100
AcDbEntity
  8
Drawing
 62
   250
420
  1842203
370
   100
  0
POLYLINE
  5
593
330
DF
100
AcDbEntity
  8
Drawing
 62
   250
420
  1842203
370
   100
100
AcDb2dPolyline
 66
     1
 10
0.0
 20
0.0
 30
0.0
  0
VERTEX
  5
594
330
593
100
AcDbEntity
  8
Drawing
 62
   250
420
  1842203
370
   100
100
AcDbVertex
100
AcDb2dVertex
 10
476.6941151086139
 20
-609.9207042481137
 30
0.0
  0
VERTEX
  5
595
330
593
100
AcDbEntity
  8
Drawing
 62
   250
420
  1842203
370
   100
100
AcDbVertex
100
AcDb2dVertex
 10
483.6940840571255
 20
-609.9207042481137
 30
0.0
  0
SEQEND
  5
596
330
593
100
AcDbEntity
  8
Drawing
 62
   250
420
  1842203
370
   100
  0
POLYLINE
  5
597
330
DF
100
AcDbEntity
  8
Drawing
 62
   250
420
  1842203
370
   100
100
AcDb2dPolyline
 66
     1
 10
0.0
 20
0.0
 30
0.0
  0
VERTEX
  5
598
330
597
100
AcDbEntity
  8
Drawing
 62
   250
420
  1842203
370
   100
100
AcDbVertex
100
AcDb2dVertex
 10
483.6940840571255
 20
-609.9207042481137
 30
0.0
  0
VERTEX
  5
599
330
597
100
AcDbEntity
  8
Drawing
 62
   250
420
  1842203
370
   100
100
AcDbVertex
100
AcDb2dVertex
 10
483.6940840571255
 20
-616.9206731966253
 30
0.0
  0
SEQEND
  5
59A
330
597
100
AcDbEntity
  8
Drawing
 62
   250
420
  1842203
370
   100
  0
POLYLINE
  5
59B
330
DF
100
AcDbEntity
  8
Drawing
 62
   250
420
  1842203
370
   100
100
AcDb2dPolyline
 66
     1
 10
0.0
 20
0.0
 30
0.0
  0
VERTEX
  5
59C
330
59B
100
AcDbEntity
  8
Drawing
 62
   250
420
  1842203
370
   100
100
AcDbVertex
100
AcDb2dVertex
 10
483.6940840571255
 20
-616.9206731966253
 30
0.0
  0
VERTEX
  5
59D
330
59B
100
AcDbEntity
  8
Drawing
 62
   250
420
  1842203
370
   100
100
AcDbVertex
100
AcDb2dVertex
 10
476.6941151086139
 20
-616.9206731966253
 30
0.0
  0
SEQEND
  5
59E
330
59B
100
AcDbEntity
  8
Drawing
 62
   250
420
  1842203
370
   100
  0
POLYLINE
  5
59F
330
DF
100
AcDbEntity
  8
Drawing
 62
   250
420
  1842203
370
   100
100
AcDb2dPolyline
 66
     1
 10
0.0
 20
0.0
 30
0.0
  0
VERTEX
  5
5A0
330
59F
100
AcDbEntity
  8
Drawing
 62
   250
420
  1842203
370
   100
100
AcDbVertex
100
AcDb2dVertex
 10
476.6941151086139
 20
-616.9206731966253
 30
0.0
  0
VERTEX
  5
5A1
330
59F
100
AcDbEntity
  8
Drawing
 62
   250
420
  1842203
370
   100
100
AcDbVertex
100
AcDb2dVertex
 10
476.6941151086139
 20
-609.9207042481137
 30
0.0
  0
SEQEND
  5
5A2
330
59F
100
AcDbEntity
  8
Drawing
 62
   250
420
  1842203
370
   100
  0
POLYLINE
  5
5A3
330
DF
100
AcDbEntity
  8
Drawing
 62
   250
420
  1842203
370
   100
100
AcDb2dPolyline
 66
     1
 10
0.0
 20
0.0
 30
0.0
  0
VERTEX
  5
5A4
330
5A3
100
AcDbEntity
  8
Drawing
 62
   250
420
  1842203
370
   100
100
AcDbVertex
100
AcDb2dVertex
 10
494.694352264973
 20
-609.9207042481137
 30
0.0
  0
VERTEX
  5
5A5
330
5A3
100
AcDbEntity
  8
Drawing
 62
   250
420
  1842203
370
   100
100
AcDbVertex
100
AcDb2dVertex
 10
501.6943212134847
 20
-609.9207042481137
 30
0.0
  0
SEQEND
  5
5A6
330
5A3
100
AcDbEntity
  8
Drawing
 62
   250
420
  1842203
370
   100
  0
POLYLINE
  5
5A7
330
DF
100
AcDbEntity
  8
Drawing
 62
   250
420
  1842203
370
   100
100
AcDb2dPolyline
 66
     1
 10
0.0
 20
0.0
 30
0.0
  0
VERTEX
  5
5A8
330
5A7
100
AcDbEntity
  8
Drawing
 62
   250
420
  1842203
370
   100
100
AcDbVertex
100
AcDb2dVertex
 10
501.6943212134847
 20
-609.9207042481137
 30
0.0
  0
VERTEX
  5
5A9
330
5A7
100
AcDbEntity
  8
Drawing
 62
   250
420
  1842203
370
   100
100
AcDbVertex
100
AcDb2dVertex
 10
501.6943212134847
 20
-616.9206731966253
 30
0.0
  0
SEQEND
  5
5AA
330
5A7
100
AcDbEntity
  8
Drawing
 62
   250
420
  1842203
370
   100
  0
POLYLINE
  5
5AB
330
DF
100
AcDbEntity
  8
Drawing
 62
   250
420
  1842203
370
   100
100
AcDb2dPolyline
 66
     1
 10
0.0
 20
0.0
 30
0.0
  0
VERTEX
  5
5AC
330
5AB
100
AcDbEntity
  8
Drawing
 62
   250
420
  1842203
370
   100
100
AcDbVertex
100
AcDb2dVertex
 10
501.6943212134847
 20
-616.9206731966253
 30
0.0
  0
VERTEX
  5
5AD
330
5AB
100
AcDbEntity
  8
Drawing
 62
   250
420
  1842203
370
   100
100
AcDbVertex
100
AcDb2dVertex
 10
494.694352264973
 20
-616.9206731966253
 30
0.0
  0
SEQEND
  5
5AE
330
5AB
100
AcDbEntity
  8
Drawing
 62
   250
420
  1842203
370
   100
  0
POLYLINE
  5
5AF
330
DF
100
AcDbEntity
  8
Drawing
 62
   250
420
  1842203
370
   100
100
AcDb2dPolyline
 66
     1
 10
0.0
 20
0.0
 30
0.0
  0
VERTEX
  5
5B0
330
5AF
100
AcDbEntity
  8
Drawing
 62
   250
420
  1842203
370
   100
100
AcDbVertex
100
AcDb2dVertex
 10
494.694352264973
 20
-616.9206731966253
 30
0.0
  0
VERTEX
  5
5B1
330
5AF
100
AcDbEntity
  8
Drawing
 62
   250
420
  1842203
370
   100
100
AcDbVertex
100
AcDb2dVertex
 10
494.694352264973
 20
-609.9207042481137
 30
0.0
  0
SEQEND
  5
5B2
330
5AF
100
AcDbEntity
  8
Drawing
 62
   250
420
  1842203
370
   100
  0
POLYLINE
  5
5B3
330
DF
100
AcDbEntity
  8
Drawing
 62
   250
420
  1842203
370
   100
100
AcDb2dPolyline
 66
     1
 10
0.0
 20
0.0
 30
0.0
  0
VERTEX
  5
5B4
330
5B3
100
AcDbEntity
  8
Drawing
 62
   250
420
  1842203
370
   100
100
AcDbVertex
100
AcDb2dVertex
 10
512.6945894213319
 20
-609.9207042481137
 30
0.0
  0
VERTEX
  5
5B5
330
5B3
100
AcDbEntity
  8
Drawing
 62
   250
420
  1842203
370
   100
100
AcDbVertex
100
AcDb2dVertex
 10
519.6945583698435
 20
-609.9207042481137
 30
0.0
  0
SEQEND
  5
5B6
330
5B3
100
AcDbEntity
  8
Drawing
 62
   250
420
  1842203
370
   100
  0
POLYLINE
  5
5B7
330
DF
100
AcDbEntity
  8
Drawing
 62
   250
420
  1842203
370
   100
100
AcDb2dPolyline
 66
     1
 10
0.0
 20
0.0
 30
0.0
  0
VERTEX
  5
5B8
330
5B7
100
AcDbEntity
  8
Drawing
 62
   250
420
  1842203
370
   100
100
AcDbVertex
100
AcDb2dVertex
 10
519.6945583698435
 20
-609.9207042481137
 30
0.0
  0
VERTEX
  5
5B9
330
5B7
100
AcDbEntity
  8
Drawing
 62
   250
420
  1842203
370
   100
100
AcDbVertex
100
AcDb2dVertex
 10
519.6945583698435
 20
-616.9206731966253
 30
0.0
  0
SEQEND
  5
5BA
330
5B7
100
AcDbEntity
  8
Drawing
 62
   250
420
  1842203
370
   100
  0
POLYLINE
  5
5BB
330
DF
100
AcDbEntity
  8
Drawing
 62
   250
420
  1842203
370
   100
100
AcDb2dPolyline
 66
     1
 10
0.0
 20
0.0
 30
0.0
  0
VERTEX
  5
5BC
330
5BB
100
AcDbEntity
  8
Drawing
 62
   250
420
  1842203
370
   100
100
AcDbVertex
100
AcDb2dVertex
 10
519.6945583698435
 20
-616.9206731966253
 30
0.0
  0
VERTEX
  5
5BD
330
5BB
100
AcDbEntity
  8
Drawing
 62
   250
420
  1842203
370
   100
100
AcDbVertex
100
AcDb2dVertex
 10
512.6945894213319
 20
-616.9206731966253
 30
0.0
  0
SEQEND
  5
5BE
330
5BB
100
AcDbEntity
  8
Drawing
 62
   250
420
  1842203
370
   100
  0
POLYLINE
  5
5BF
330
DF
100
AcDbEntity
  8
Drawing
 62
   250
420
  1842203
370
   100
100
AcDb2dPolyline
 66
     1
 10
0.0
 20
0.0
 30
0.0
  0
VERTEX
  5
5C0
330
5BF
100
AcDbEntity
  8
Drawing
 62
   250
420
  1842203
370
   100
100
AcDbVertex
100
AcDb2dVertex
 10
512.6945894213319
 20
-616.9206731966253
 30
0.0
  0
VERTEX
  5
5C1
330
5BF
100
AcDbEntity
  8
Drawing
 62
   250
420
  1842203
370
   100
100
AcDbVertex
100
AcDb2dVertex
 10
512.6945894213319
 20
-609.9207042481137
 30
0.0
  0
SEQEND
  5
5C2
330
5BF
100
AcDbEntity
  8
Drawing
 62
   250
420
  1842203
370
   100
  0
POLYLINE
  5
5C3
330
DF
100
AcDbEntity
  8
Drawing
 62
   250
420
  1842203
370
   100
100
AcDb2dPolyline
 66
     1
 10
0.0
 20
0.0
 30
0.0
  0
VERTEX
  5
5C4
330
5C3
100
AcDbEntity
  8
Drawing
 62
   250
420
  1842203
370
   100
100
AcDbVertex
100
AcDb2dVertex
 10
530.6948265776913
 20
-609.9207042481137
 30
0.0
  0
VERTEX
  5
5C5
330
5C3
100
AcDbEntity
  8
Drawing
 62
   250
420
  1842203
370
   100
100
AcDbVertex
100
AcDb2dVertex
 10
537.6947955262029
 20
-609.9207042481137
 30
0.0
  0
SEQEND
  5
5C6
330
5C3
100
AcDbEntity
  8
Drawing
 62
   250
420
  1842203
370
   100
  0
POLYLINE
  5
5C7
330
DF
100
AcDbEntity
  8
Drawing
 62
   250
420
  1842203
370
   100
100
AcDb2dPolyline
 66
     1
 10
0.0
 20
0.0
 30
0.0
  0
VERTEX
  5
5C8
330
5C7
100
AcDbEntity
  8
Drawing
 62
   250
420
  1842203
370
   100
100
AcDbVertex
100
AcDb2dVertex
 10
537.6947955262029
 20
-609.9207042481137
 30
0.0
  0
VERTEX
  5
5C9
330
5C7
100
AcDbEntity
  8
Drawing
 62
   250
420
  1842203
370
   100
100
AcDbVertex
100
AcDb2dVertex
 10
537.6947955262029
 20
-616.9206731966253
 30
0.0
  0
SEQEND
  5
5CA
330
5C7
100
AcDbEntity
  8
Drawing
 62
   250
420
  1842203
370
   100
  0
POLYLINE
  5
5CB
330
DF
100
AcDbEntity
  8
Drawing
 62
   250
420
  1842203
370
   100
100
AcDb2dPolyline
 66
     1
 10
0.0
 20
0.0
 30
0.0
  0
VERTEX
  5
5CC
330
5CB
100
AcDbEntity
  8
Drawing
 62
   250
420
  1842203
370
   100
100
AcDbVertex
100
AcDb2dVertex
 10
537.6947955262029
 20
-616.9206731966253
 30
0.0
  0
VERTEX
  5
5CD
330
5CB
100
AcDbEntity
  8
Drawing
 62
   250
420
  1842203
370
   100
100
AcDbVertex
100
AcDb2dVertex
 10
530.6948265776913
 20
-616.9206731966253
 30
0.0
  0
SEQEND
  5
5CE
330
5CB
100
AcDbEntity
  8
Drawing
 62
   250
420
  1842203
370
   100
  0
POLYLINE
  5
5CF
330
DF
100
AcDbEntity
  8
Drawing
 62
   250
420
  1842203
370
   100
100
AcDb2dPolyline
 66
     1
 10
0.0
 20
0.0
 30
0.0
  0
VERTEX
  5
5D0
330
5CF
100
AcDbEntity
  8
Drawing
 62
   250
420
  1842203
370
   100
100
AcDbVertex
100
AcDb2dVertex
 10
530.6948265776913
 20
-616.9206731966253
 30
0.0
  0
VERTEX
  5
5D1
330
5CF
100
AcDbEntity
  8
Drawing
 62
   250
420
  1842203
370
   100
100
AcDbVertex
100
AcDb2dVertex
 10
530.6948265776913
 20
-609.9207042481137
 30
0.0
  0
SEQEND
  5
5D2
330
5CF
100
AcDbEntity
  8
Drawing
 62
   250
420
  1842203
370
   100
  0
POLYLINE
  5
5D3
330
DF
100
AcDbEntity
  8
Drawing
 62
   250
420
  1842203
370
   100
100
AcDb2dPolyline
 66
     1
 10
0.0
 20
0.0
 30
0.0
  0
VERTEX
  5
5D4
330
5D3
100
AcDbEntity
  8
Drawing
 62
   250
420
  1842203
370
   100
100
AcDbVertex
100
AcDb2dVertex
 10
548.693970783258
 20
-609.9207042481137
 30
0.0
  0
VERTEX
  5
5D5
330
5D3
100
AcDbEntity
  8
Drawing
 62
   250
420
  1842203
370
   100
100
AcDbVertex
100
AcDb2dVertex
 10
555.6939562916302
 20
-609.9207042481137
 30
0.0
  0
SEQEND
  5
5D6
330
5D3
100
AcDbEntity
  8
Drawing
 62
   250
420
  1842203
370
   100
  0
POLYLINE
  5
5D7
330
DF
100
AcDbEntity
  8
Drawing
 62
   250
420
  1842203
370
   100
100
AcDb2dPolyline
 66
     1
 10
0.0
 20
0.0
 30
0.0
  0
VERTEX
  5
5D8
330
5D7
100
AcDbEntity
  8
Drawing
 62
   250
420
  1842203
370
   100
100
AcDbVertex
100
AcDb2dVertex
 10
555.6939562916302
 20
-609.9207042481137
 30
0.0
  0
VERTEX
  5
5D9
330
5D7
100
AcDbEntity
  8
Drawing
 62
   250
420
  1842203
370
   100
100
AcDbVertex
100
AcDb2dVertex
 10
555.6939562916302
 20
-616.9206731966253
 30
0.0
  0
SEQEND
  5
5DA
330
5D7
100
AcDbEntity
  8
Drawing
 62
   250
420
  1842203
370
   100
  0
POLYLINE
  5
5DB
330
DF
100
AcDbEntity
  8
Drawing
 62
   250
420
  1842203
370
   100
100
AcDb2dPolyline
 66
     1
 10
0.0
 20
0.0
 30
0.0
  0
VERTEX
  5
5DC
330
5DB
100
AcDbEntity
  8
Drawing
 62
   250
420
  1842203
370
   100
100
AcDbVertex
100
AcDb2dVertex
 10
555.6939562916302
 20
-616.9206731966253
 30
0.0
  0
VERTEX
  5
5DD
330
5DB
100
AcDbEntity
  8
Drawing
 62
   250
420
  1842203
370
   100
100
AcDbVertex
100
AcDb2dVertex
 10
548.693970783258
 20
-616.9206731966253
 30
0.0
  0
SEQEND
  5
5DE
330
5DB
100
AcDbEntity
  8
Drawing
 62
   250
420
  1842203
370
   100
  0
POLYLINE
  5
5DF
330
DF
100
AcDbEntity
  8
Drawing
 62
   250
420
  1842203
370
   100
100
AcDb2dPolyline
 66
     1
 10
0.0
 20
0.0
 30
0.0
  0
VERTEX
  5
5E0
330
5DF
100
AcDbEntity
  8
Drawing
 62
   250
420
  1842203
370
   100
100
AcDbVertex
100
AcDb2dVertex
 10
548.693970783258
 20
-616.9206731966253
 30
0.0
  0
VERTEX
  5
5E1
330
5DF
100
AcDbEntity
  8
Drawing
 62
   250
420
  1842203
370
   100
100
AcDbVertex
100
AcDb2dVertex
 10
548.693970783258
 20
-609.9207042481137
 30
0.0
  0
SEQEND
  5
5E2
330
5DF
100
AcDbEntity
  8
Drawing
 62
   250
420
  1842203
370
   100
  0
POLYLINE
  5
5E3
330
DF
100
AcDbEntity
  8
Drawing
 62
   250
420
  1842203
370
   100
100
AcDb2dPolyline
 66
     1
 10
0.0
 20
0.0
 30
0.0
  0
VERTEX
  5
5E4
330
5E3
100
AcDbEntity
  8
Drawing
 62
   250
420
  1842203
370
   100
100
AcDbVertex
100
AcDb2dVertex
 10
566.6942244994774
 20
-609.9207042481137
 30
0.0
  0
VERTEX
  5
5E5
330
5E3
100
AcDbEntity
  8
Drawing
 62
   250
420
  1842203
370
   100
100
AcDbVertex
100
AcDb2dVertex
 10
573.694193447989
 20
-609.9207042481137
 30
0.0
  0
SEQEND
  5
5E6
330
5E3
100
AcDbEntity
  8
Drawing
 62
   250
420
  1842203
370
   100
  0
POLYLINE
  5
5E7
330
DF
100
AcDbEntity
  8
Drawing
 62
   250
420
  1842203
370
   100
100
AcDb2dPolyline
 66
     1
 10
0.0
 20
0.0
 30
0.0
  0
VERTEX
  5
5E8
330
5E7
100
AcDbEntity
  8
Drawing
 62
   250
420
  1842203
370
   100
100
AcDbVertex
100
AcDb2dVertex
 10
573.694193447989
 20
-609.9207042481137
 30
0.0
  0
VERTEX
  5
5E9
330
5E7
100
AcDbEntity
  8
Drawing
 62
   250
420
  1842203
370
   100
100
AcDbVertex
100
AcDb2dVertex
 10
573.694193447989
 20
-616.9206731966253
 30
0.0
  0
SEQEND
  5
5EA
330
5E7
100
AcDbEntity
  8
Drawing
 62
   250
420
  1842203
370
   100
  0
POLYLINE
  5
5EB
330
DF
100
AcDbEntity
  8
Drawing
 62
   250
420
  1842203
370
   100
100
AcDb2dPolyline
 66
     1
 10
0.0
 20
0.0
 30
0.0
  0
VERTEX
  5
5EC
330
5EB
100
AcDbEntity
  8
Drawing
 62
   250
420
  1842203
370
   100
100
AcDbVertex
100
AcDb2dVertex
 10
573.694193447989
 20
-616.9206731966253
 30
0.0
  0
VERTEX
  5
5ED
330
5EB
100
AcDbEntity
  8
Drawing
 62
   250
420
  1842203
370
   100
100
AcDbVertex
100
AcDb2dVertex
 10
566.6942244994774
 20
-616.9206731966253
 30
0.0
  0
SEQEND
  5
5EE
330
5EB
100
AcDbEntity
  8
Drawing
 62
   250
420
  1842203
370
   100
  0
POLYLINE
  5
5EF
330
DF
100
AcDbEntity
  8
Drawing
 62
   250
420
  1842203
370
   100
100
AcDb2dPolyline
 66
     1
 10
0.0
 20
0.0
 30
0.0
  0
VERTEX
  5
5F0
330
5EF
100
AcDbEntity
  8
Drawing
 62
   250
420
  1842203
370
   100
100
AcDbVertex
100
AcDb2dVertex
 10
566.6942244994774
 20
-616.9206731966253
 30
0.0
  0
VERTEX
  5
5F1
330
5EF
100
AcDbEntity
  8
Drawing
 62
   250
420
  1842203
370
   100
100
AcDbVertex
100
AcDb2dVertex
 10
566.6942244994774
 20
-609.9207042481137
 30
0.0
  0
SEQEND
  5
5F2
330
5EF
100
AcDbEntity
  8
Drawing
 62
   250
420
  1842203
370
   100
  0
POLYLINE
  5
5F3
330
DF
100
AcDbEntity
  8
Drawing
 62
   250
420
  1842203
370
   100
100
AcDb2dPolyline
 66
     1
 10
0.0
 20
0.0
 30
0.0
  0
VERTEX
  5
5F4
330
5F3
100
AcDbEntity
  8
Drawing
 62
   250
420
  1842203
370
   100
100
AcDbVertex
100
AcDb2dVertex
 10
438.4948721995001
 20
-457.4211642659337
 30
0.0
  0
VERTEX
  5
5F5
330
5F3
100
AcDbEntity
  8
Drawing
 62
   250
420
  1842203
370
   100
100
AcDbVertex
100
AcDb2dVertex
 10
438.4948721995001
 20
-457.5286046407971
 30
0.0
  0
SEQEND
  5
5F6
330
5F3
100
AcDbEntity
  8
Drawing
 62
   250
420
  1842203
370
   100
  0
POLYLINE
  5
5F7
330
DF
100
AcDbEntity
  8
Drawing
 62
   250
420
  1842203
370
   100
100
AcDb2dPolyline
 66
     1
 10
0.0
 20
0.0
 30
0.0
  0
VERTEX
  5
5F8
330
5F7
100
AcDbEntity
  8
Drawing
 62
   250
420
  1842203
370
   100
100
AcDbVertex
100
AcDb2dVertex
 10
437.1947327125716
 20
-459.4212973357434
 30
0.0
  0
VERTEX
  5
5F9
330
5F7
100
AcDbEntity
  8
Drawing
 62
   250
420
  1842203
370
   100
100
AcDbVertex
100
AcDb2dVertex
 10
437.7916246040347
 20
-459.4212973357434
 30
0.0
  0
SEQEND
  5
5FA
330
5F7
100
AcDbEntity
  8
Drawing
 62
   250
420
  1842203
370
   100
  0
POLYLINE
  5
5FB
330
DF
100
AcDbEntity
  8
Drawing
 62
   250
420
  1842203
370
   100
100
AcDb2dPolyline
 66
     1
 10
0.0
 20
0.0
 30
0.0
  0
VERTEX
  5
5FC
330
5FB
100
AcDbEntity
  8
Drawing
 62
   250
420
  1842203
370
   100
100
AcDbVertex
100
AcDb2dVertex
 10
437.1947327125716
 20
-457.4211642659337
 30
0.0
  0
VERTEX
  5
5FD
330
5FB
100
AcDbEntity
  8
Drawing
 62
   250
420
  1842203
370
   100
100
AcDbVertex
100
AcDb2dVertex
 10
438.4948721995001
 20
-457.4211642659337
 30
0.0
  0
SEQEND
  5
5FE
330
5FB
100
AcDbEntity
  8
Drawing
 62
   250
420
  1842203
370
   100
  0
SPLINE
  5
5FF
330
DF
100
AcDbEntity
  8
Drawing
 62
   250
420
  1842203
370
   100
100
AcDbSpline
210
0.0
220
0.0
230
1.0
 70
     8
 71
     3
 72
    11
 73
     7
 74
     0
 42
0.0000000001
 43
0.0000000001
 12
1.0
 22
0.0
 32
0.0
 13
1.0
 23
0.0
 33
0.0
 40
0.0
 40
0.0
 40
0.0
 40
0.0
 40
1.0
 40
1.0
 40
1.0
 40
2.0
 40
2.0
 40
2.0
 40
2.0
 10
437.1947327125716
 20
-457.4211642659337
 30
0.0
 10
435.8685362851606
 20
-457.4211642659337
 30
0.0
 10
434.5965982406483
 20
-457.9485958225696
 30
0.0
 10
433.6589292600739
 20
-458.8862813630026
 30
0.0
 10
432.7212602794999
 20
-459.8239337837161
 30
0.0
 10
432.1949051137978
 20
-461.094803717227
 30
0.0
 10
432.1949051137978
 20
-462.4209835847762
 30
0.0
  0
SPLINE
  5
600
330
DF
100
AcDbEntity
  8
Drawing
 62
   250
420
  1842203
370
   100
100
AcDbSpline
210
0.0
220
0.0
230
1.0
 70
     8
 71
     3
 72
    11
 73
     7
 74
     0
 42
0.0000000001
 43
0.0000000001
 12
1.0
 22
0.0
 32
0.0
 13
1.0
 23
0.0
 33
0.0
 40
0.0
 40
0.0
 40
0.0
 40
0.0
 40
1.0
 40
1.0
 40
1.0
 40
2.0
 40
2.0
 40
2.0
 40
2.0
 10
437.1947327125716
 20
-459.4212973357434
 30
0.0
 10
436.4328714908987
 20
-459.4212973357434
 30
0.0
 10
435.699228271502
 20
-459.711094894332
 30
0.0
 10
435.1435704326615
 20
-460.2320018659326
 30
0.0
 10
434.587920873751
 20
-460.752941957256
 30
0.0
 10
434.2503977972264
 20
-461.4659433105469
 30
0.0
 10
434.2015627686384
 20
-462.2267364212217
 30
0.0
  0
POLYLINE
  5
601
330
DF
100
AcDbEntity
  8
Drawing
 62
   250
420
  1842203
370
   100
100
AcDb2dPolyline
 66
     1
 10
0.0
 20
0.0
 30
0.0
  0
VERTEX
  5
602
330
601
100
AcDbEntity
  8
Drawing
 62
   250
420
  1842203
370
   100
100
AcDbVertex
100
AcDb2dVertex
 10
593.8938947148847
 20
-625.4208164668634
 30
0.0
  0
VERTEX
  5
603
330
601
100
AcDbEntity
  8
Drawing
 62
   250
420
  1842203
370
   100
100
AcDbVertex
100
AcDb2dVertex
 10
593.8938947148847
 20
-625.3133760919993
 30
0.0
  0
SEQEND
  5
604
330
601
100
AcDbEntity
  8
Drawing
 62
   250
420
  1842203
370
   100
  0
POLYLINE
  5
605
330
DF
100
AcDbEntity
  8
Drawing
 62
   250
420
  1842203
370
   100
100
AcDb2dPolyline
 66
     1
 10
0.0
 20
0.0
 30
0.0
  0
VERTEX
  5
606
330
605
100
AcDbEntity
  8
Drawing
 62
   250
420
  1842203
370
   100
100
AcDbVertex
100
AcDb2dVertex
 10
595.1940756014637
 20
-623.4206668371946
 30
0.0
  0
VERTEX
  5
607
330
605
100
AcDbEntity
  8
Drawing
 62
   250
420
  1842203
370
   100
100
AcDbVertex
100
AcDb2dVertex
 10
594.5971588702105
 20
-623.4206668371946
 30
0.0
  0
SEQEND
  5
608
330
605
100
AcDbEntity
  8
Drawing
 62
   250
420
  1842203
370
   100
  0
POLYLINE
  5
609
330
DF
100
AcDbEntity
  8
Drawing
 62
   250
420
  1842203
370
   100
100
AcDb2dPolyline
 66
     1
 10
0.0
 20
0.0
 30
0.0
  0
VERTEX
  5
60A
330
609
100
AcDbEntity
  8
Drawing
 62
   250
420
  1842203
370
   100
100
AcDbVertex
100
AcDb2dVertex
 10
595.1940756014637
 20
-625.4208164668634
 30
0.0
  0
VERTEX
  5
60B
330
609
100
AcDbEntity
  8
Drawing
 62
   250
420
  1842203
370
   100
100
AcDbVertex
100
AcDb2dVertex
 10
593.8938947148847
 20
-625.4208164668634
 30
0.0
  0
SEQEND
  5
60C
330
609
100
AcDbEntity
  8
Drawing
 62
   250
420
  1842203
370
   100
  0
SPLINE
  5
60D
330
DF
100
AcDbEntity
  8
Drawing
 62
   250
420
  1842203
370
   100
100
AcDbSpline
210
0.0
220
0.0
230
1.0
 70
     8
 71
     3
 72
    11
 73
     7
 74
     0
 42
0.0000000001
 43
0.0000000001
 12
1.0
 22
0.0
 32
0.0
 13
1.0
 23
0.0
 33
0.0
 40
0.0
 40
0.0
 40
0.0
 40
0.0
 40
1.0
 40
1.0
 40
1.0
 40
2.0
 40
2.0
 40
2.0
 40
2.0
 10
595.1940756014637
 20
-625.4208164668634
 30
0.0
 10
596.5202554690143
 20
-625.4208164668634
 30
0.0
 10
597.7921852335975
 20
-624.89338491023
 30
0.0
 10
598.7298707740318
 20
-623.9557159296556
 30
0.0
 10
599.6675231947455
 20
-623.0180469490799
 30
0.0
 10
600.1938949203079
 20
-621.747193575431
 30
0.0
 10
600.1938949203079
 20
-620.4209971480204
 30
0.0
  0
SPLINE
  5
60E
330
DF
100
AcDbEntity
  8
Drawing
 62
   250
420
  1842203
370
   100
100
AcDbSpline
210
0.0
220
0.0
230
1.0
 70
     8
 71
     3
 72
    11
 73
     7
 74
     0
 42
0.0000000001
 43
0.0000000001
 12
1.0
 22
0.0
 32
0.0
 13
1.0
 23
0.0
 33
0.0
 40
0.0
 40
0.0
 40
0.0
 40
0.0
 40
1.0
 40
1.0
 40
1.0
 40
2.0
 40
2.0
 40
2.0
 40
2.0
 10
595.1940756014637
 20
-623.4206668371946
 30
0.0
 10
595.955928543207
 20
-623.4206668371946
 30
0.0
 10
596.6895634826732
 20
-623.1309023983259
 30
0.0
 10
597.2452130415836
 20
-622.6099788668673
 30
0.0
 10
597.8008626004942
 20
-622.0890553354049
 30
0.0
 10
598.1383856770191
 20
-621.3760374222495
 30
0.0
 10
598.1872372654669
 20
-620.6152608714405
 30
0.0
  0
SPLINE
  5
60F
330
DF
100
AcDbEntity
  8
Drawing
 62
   250
420
  1842203
370
   100
100
AcDbSpline
210
0.0
220
0.0
230
1.0
 70
     8
 71
     3
 72
    11
 73
     7
 74
     0
 42
0.0000000001
 43
0.0000000001
 12
1.0
 22
0.0
 32
0.0
 13
1.0
 23
0.0
 33
0.0
 40
0.0
 40
0.0
 40
0.0
 40
0.0
 40
1.0
 40
1.0
 40
1.0
 40
2.0
 40
2.0
 40
2.0
 40
2.0
 10
432.1943586384014
 20
-620.4202353944395
 30
0.0
 10
432.1943586384014
 20
-621.7464318218499
 30
0.0
 10
432.721798474966
 20
-623.0183615864294
 30
0.0
 10
433.65947573547
 20
-623.956030567005
 30
0.0
 10
434.5971447160445
 20
-624.8936995475793
 30
0.0
 10
435.8690744806267
 20
-625.421147664074
 30
0.0
 10
437.1941862371752
 20
-625.421147664074
 30
0.0
  0
SPLINE
  5
610
330
DF
100
AcDbEntity
  8
Drawing
 62
   250
420
  1842203
370
   100
100
AcDbSpline
210
0.0
220
0.0
230
1.0
 70
     8
 71
     3
 72
    11
 73
     7
 74
     0
 42
0.0000000001
 43
0.0000000001
 12
1.0
 22
0.0
 32
0.0
 13
1.0
 23
0.0
 33
0.0
 40
0.0
 40
0.0
 40
0.0
 40
0.0
 40
1.0
 40
1.0
 40
1.0
 40
2.0
 40
2.0
 40
2.0
 40
2.0
 10
434.2010245731726
 20
-620.6155755087898
 30
0.0
 10
434.2509442726225
 20
-621.3763520595988
 30
0.0
 10
434.5873743983549
 20
-622.0893699727543
 30
0.0
 10
435.1430322371954
 20
-622.6103100640754
 30
0.0
 10
435.6997747468984
 20
-623.1312335955365
 30
0.0
 10
436.4323332954326
 20
-623.4209980344066
 30
0.0
 10
437.1941862371752
 20
-623.4209980344066
 30
0.0
  0
POLYLINE
  5
611
330
DF
100
AcDbEntity
  8
Drawing
 62
   250
420
  1842203
370
   100
100
AcDb2dPolyline
 66
     1
 10
0.0
 20
0.0
 30
0.0
  0
VERTEX
  5
612
330
611
100
AcDbEntity
  8
Drawing
 62
   250
420
  1842203
370
   100
100
AcDbVertex
100
AcDb2dVertex
 10
437.7916246040347
 20
-623.4204681188701
 30
0.0
  0
VERTEX
  5
613
330
611
100
AcDbEntity
  8
Drawing
 62
   250
420
  1842203
370
   100
100
AcDbVertex
100
AcDb2dVertex
 10
437.1947327125716
 20
-623.4204681188701
 30
0.0
  0
SEQEND
  5
614
330
611
100
AcDbEntity
  8
Drawing
 62
   250
420
  1842203
370
   100
  0
POLYLINE
  5
615
330
DF
100
AcDbEntity
  8
Drawing
 62
   250
420
  1842203
370
   100
100
AcDb2dPolyline
 66
     1
 10
0.0
 20
0.0
 30
0.0
  0
VERTEX
  5
616
330
615
100
AcDbEntity
  8
Drawing
 62
   250
420
  1842203
370
   100
100
AcDbVertex
100
AcDb2dVertex
 10
437.1947327125716
 20
-625.4206011886763
 30
0.0
  0
VERTEX
  5
617
330
615
100
AcDbEntity
  8
Drawing
 62
   250
420
  1842203
370
   100
100
AcDbVertex
100
AcDb2dVertex
 10
438.4948721995001
 20
-625.4206011886763
 30
0.0
  0
VERTEX
  5
618
330
615
100
AcDbEntity
  8
Drawing
 62
   250
420
  1842203
370
   100
100
AcDbVertex
100
AcDb2dVertex
 10
438.4948721995001
 20
-625.3131608138123
 30
0.0
  0
SEQEND
  5
619
330
615
100
AcDbEntity
  8
Drawing
 62
   250
420
  1842203
370
   100
  0
SPLINE
  5
61A
330
DF
100
AcDbEntity
  8
Drawing
 62
   250
420
  1842203
370
   100
100
AcDbSpline
210
0.0
220
0.0
230
1.0
 70
     8
 71
     3
 72
    11
 73
     7
 74
     0
 42
0.0000000001
 43
0.0000000001
 12
1.0
 22
0.0
 32
0.0
 13
1.0
 23
0.0
 33
0.0
 40
0.0
 40
0.0
 40
0.0
 40
0.0
 40
1.0
 40
1.0
 40
1.0
 40
2.0
 40
2.0
 40
2.0
 40
2.0
 10
600.1943585964013
 20
-462.4217784580806
 30
0.0
 10
600.1943585964013
 20
-461.0955654708115
 30
0.0
 10
599.6668939200462
 20
-459.8236357062283
 30
0.0
 10
598.729241499333
 20
-458.8859832855148
 30
0.0
 10
597.791555958898
 20
-457.9482977450785
 30
0.0
 10
596.5196261943155
 20
-457.4208661884458
 30
0.0
 10
595.1945061578366
 20
-457.4208661884458
 30
0.0
  0
SPLINE
  5
61B
330
DF
100
AcDbEntity
  8
Drawing
 62
   250
420
  1842203
370
   100
100
AcDbSpline
210
0.0
220
0.0
230
1.0
 70
     8
 71
     3
 72
    11
 73
     7
 74
     0
 42
0.0000000001
 43
0.0000000001
 12
1.0
 22
0.0
 32
0.0
 13
1.0
 23
0.0
 33
0.0
 40
0.0
 40
0.0
 40
0.0
 40
0.0
 40
1.0
 40
1.0
 40
1.0
 40
2.0
 40
2.0
 40
2.0
 40
2.0
 10
598.187700941561
 20
-462.2264052240107
 30
0.0
 10
598.1377564023203
 20
-461.465645233059
 30
0.0
 10
597.8013262765876
 20
-460.7526438797649
 30
0.0
 10
597.2456767176777
 20
-460.2317037884447
 30
0.0
 10
596.6889342079744
 20
-459.710763697121
 30
0.0
 10
595.9563590995799
 20
-459.420999258252
 30
0.0
 10
595.1945061578366
 20
-459.420999258252
 30
0.0
  0
POLYLINE
  5
61C
330
DF
100
AcDbEntity
  8
Drawing
 62
   250
420
  1842203
370
   100
100
AcDb2dPolyline
 66
     1
 10
0.0
 20
0.0
 30
0.0
  0
VERTEX
  5
61D
330
61C
100
AcDbEntity
  8
Drawing
 62
   250
420
  1842203
370
   100
100
AcDbVertex
100
AcDb2dVertex
 10
594.5971588702105
 20
-459.4215291737882
 30
0.0
  0
VERTEX
  5
61E
330
61C
100
AcDbEntity
  8
Drawing
 62
   250
420
  1842203
370
   100
100
AcDbVertex
100
AcDb2dVertex
 10
595.1940756014637
 20
-459.4215291737882
 30
0.0
  0
SEQEND
  5
61F
330
61C
100
AcDbEntity
  8
Drawing
 62
   250
420
  1842203
370
   100
  0
POLYLINE
  5
620
330
DF
100
AcDbEntity
  8
Drawing
 62
   250
420
  1842203
370
   100
100
AcDb2dPolyline
 66
     1
 10
0.0
 20
0.0
 30
0.0
  0
VERTEX
  5
621
330
620
100
AcDbEntity
  8
Drawing
 62
   250
420
  1842203
370
   100
100
AcDbVertex
100
AcDb2dVertex
 10
595.1940756014637
 20
-457.4213629842624
 30
0.0
  0
VERTEX
  5
622
330
620
100
AcDbEntity
  8
Drawing
 62
   250
420
  1842203
370
   100
100
AcDbVertex
100
AcDb2dVertex
 10
593.8938947148847
 20
-457.4213629842624
 30
0.0
  0
VERTEX
  5
623
330
620
100
AcDbEntity
  8
Drawing
 62
   250
420
  1842203
370
   100
100
AcDbVertex
100
AcDb2dVertex
 10
593.8938947148847
 20
-457.5288364788454
 30
0.0
  0
SEQEND
  5
624
330
620
100
AcDbEntity
  8
Drawing
 62
   250
420
  1842203
370
   100
  0
SPLINE
  5
625
330
DF
100
AcDbEntity
  8
Drawing
 62
   250
420
  1842203
370
   100
100
AcDbSpline
210
0.0
220
0.0
230
1.0
 70
     8
 71
     3
 72
    11
 73
     7
 74
     0
 42
0.0000000001
 43
0.0000000001
 12
1.0
 22
0.0
 32
0.0
 13
1.0
 23
0.0
 33
0.0
 40
0.0
 40
0.0
 40
0.0
 40
0.0
 40
1.0
 40
1.0
 40
1.0
 40
2.0
 40
2.0
 40
2.0
 40
2.0
 10
432.1946898356114
 20
-462.4209835847762
 30
0.0
 10
432.1946898356114
 20
-462.3602088967781
 30
0.0
 10
432.8968527602146
 20
-462.2983412579807
 30
0.0
 10
434.0005674619305
 20
-462.2375665699823
 30
0.0
 10
434.6473873327736
 20
-462.201764151601
 30
0.0
 10
435.420095263068
 20
-462.1648687824278
 30
0.0
 10
436.1949808150169
 20
-462.129066364043
 30
0.0
  0
SPLINE
  5
626
330
DF
100
AcDbEntity
  8
Drawing
 62
   250
420
  1842203
370
   100
100
AcDbSpline
210
0.0
220
0.0
230
1.0
 70
     8
 71
     3
 72
    11
 73
     7
 74
     0
 42
0.0000000001
 43
0.0000000001
 12
1.0
 22
0.0
 32
0.0
 13
1.0
 23
0.0
 33
0.0
 40
0.0
 40
0.0
 40
0.0
 40
0.0
 40
1.0
 40
1.0
 40
1.0
 40
2.0
 40
2.0
 40
2.0
 40
2.0
 10
436.1949808150169
 20
-620.7126162912656
 30
0.0
 10
434.8742077419171
 20
-620.650748652472
 30
0.0
 10
433.5740599750584
 20
-620.58997396447
 30
0.0
 10
432.8501870733515
 20
-620.5281228855378
 30
0.0
 10
432.4258489282032
 20
-620.4923039072943
 30
0.0
 10
432.1946898356114
 20
-620.4564849290521
 30
0.0
 10
432.1946898356114
 20
-620.4206659508125
 30
0.0
  0
POLYLINE
  5
627
330
DF
100
AcDbEntity
  8
Drawing
 62
   250
420
  1842203
370
   100
100
AcDb2dPolyline
 66
     1
 10
0.0
 20
0.0
 30
0.0
  0
VERTEX
  5
628
330
627
100
AcDbEntity
  8
Drawing
 62
   250
420
  1842203
370
   100
100
AcDbVertex
100
AcDb2dVertex
 10
432.1946898356114
 20
-620.4206659508125
 30
0.0
  0
VERTEX
  5
629
330
627
100
AcDbEntity
  8
Drawing
 62
   250
420
  1842203
370
   100
100
AcDbVertex
100
AcDb2dVertex
 10
432.1946898356114
 20
-462.4209835847762
 30
0.0
  0
SEQEND
  5
62A
330
627
100
AcDbEntity
  8
Drawing
 62
   250
420
  1842203
370
   100
  0
SPLINE
  5
62B
330
DF
100
AcDbEntity
  8
Drawing
 62
   250
420
  1842203
370
   100
100
AcDbSpline
210
0.0
220
0.0
230
1.0
 70
     8
 71
     3
 72
    11
 73
     7
 74
     0
 42
0.0000000001
 43
0.0000000001
 12
1.0
 22
0.0
 32
0.0
 13
1.0
 23
0.0
 33
0.0
 40
0.0
 40
0.0
 40
0.0
 40
0.0
 40
1.0
 40
1.0
 40
1.0
 40
2.0
 40
2.0
 40
2.0
 40
2.0
 10
593.6938184804337
 20
-457.4215948223072
 30
0.0
 10
593.9781512850618
 20
-457.4215948223072
 30
0.0
 10
594.2635770404828
 20
-458.1226730760488
 30
0.0
 10
594.5479098451109
 20
-459.2263877777631
 30
0.0
 10
594.7150319571841
 20
-459.8743088793307
 30
0.0
 10
594.8810942381868
 20
-460.6470250895547
 30
0.0
 10
595.0482163502606
 20
-461.4208011308509
 30
0.0
  0
SPLINE
  5
62C
330
DF
100
AcDbEntity
  8
Drawing
 62
   250
420
  1842203
370
   100
100
AcDbSpline
210
0.0
220
0.0
230
1.0
 70
     8
 71
     3
 72
    11
 73
     7
 74
     0
 42
0.0000000001
 43
0.0000000001
 12
1.0
 22
0.0
 32
0.0
 13
1.0
 23
0.0
 33
0.0
 40
0.0
 40
0.0
 40
0.0
 40
0.0
 40
1.0
 40
1.0
 40
1.0
 40
2.0
 40
2.0
 40
2.0
 40
2.0
 10
437.3404843246818
 20
-461.4208011308509
 30
0.0
 10
437.6248171293099
 20
-460.1011127286139
 30
0.0
 10
437.9091499339383
 20
-458.8009649617539
 30
0.0
 10
438.1945756893587
 20
-458.0771003399757
 30
0.0
 10
438.3606214105005
 20
-457.6516775239662
 30
0.0
 10
438.527760082435
 20
-457.4215948223072
 30
0.0
 10
438.6948821945088
 20
-457.4215948223072
 30
0.0
  0
POLYLINE
  5
62D
330
DF
100
AcDbEntity
  8
Drawing
 62
   250
420
  1842203
370
   100
100
AcDb2dPolyline
 66
     1
 10
0.0
 20
0.0
 30
0.0
  0
VERTEX
  5
62E
330
62D
100
AcDbEntity
  8
Drawing
 62
   250
420
  1842203
370
   100
100
AcDbVertex
100
AcDb2dVertex
 10
438.6948821945088
 20
-457.4215948223072
 30
0.0
  0
VERTEX
  5
62F
330
62D
100
AcDbEntity
  8
Drawing
 62
   250
420
  1842203
370
   100
100
AcDbVertex
100
AcDb2dVertex
 10
593.6938184804337
 20
-457.4215948223072
 30
0.0
  0
SEQEND
  5
630
330
62D
100
AcDbEntity
  8
Drawing
 62
   250
420
  1842203
370
   100
  0
SPLINE
  5
631
330
DF
100
AcDbEntity
  8
Drawing
 62
   250
420
  1842203
370
   100
100
AcDbSpline
210
0.0
220
0.0
230
1.0
 70
     8
 71
     3
 72
     8
 73
     4
 74
     0
 42
0.0000000001
 43
0.0000000001
 12
1.0
 22
0.0
 32
0.0
 13
1.0
 23
0.0
 33
0.0
 40
0.0
 40
0.0
 40
0.0
 40
0.0
 40
1.0
 40
1.0
 40
1.0
 40
1.0
 10
595.0482163502606
 20
-461.4208011308509
 30
0.0
 10
595.3879253283708
 20
-461.7203358874082
 30
0.0
 10
595.7753598244145
 20
-461.9601889067592
 30
0.0
 10
596.1942580553916
 20
-462.1294969204166
 30
0.0
  0
SPLINE
  5
632
330
DF
100
AcDbEntity
  8
Drawing
 62
   250
420
  1842203
370
   100
100
AcDbSpline
210
0.0
220
0.0
230
1.0
 70
     8
 71
     3
 72
     8
 73
     4
 74
     0
 42
0.0000000001
 43
0.0000000001
 12
1.0
 22
0.0
 32
0.0
 13
1.0
 23
0.0
 33
0.0
 40
0.0
 40
0.0
 40
0.0
 40
0.0
 40
1.0
 40
1.0
 40
1.0
 40
1.0
 10
596.1942580553916
 20
-620.713046847636
 30
0.0
 10
595.7753598244145
 20
-620.8823548612961
 30
0.0
 10
595.3879253283708
 20
-621.1211149298524
 30
0.0
 10
595.0482163502606
 20
-621.4206331265519
 30
0.0
  0
SPLINE
  5
633
330
DF
100
AcDbEntity
  8
Drawing
 62
   250
420
  1842203
370
   100
100
AcDbSpline
210
0.0
220
0.0
230
1.0
 70
     8
 71
     3
 72
     8
 73
     4
 74
     0
 42
0.0000000001
 43
0.0000000001
 12
1.0
 22
0.0
 32
0.0
 13
1.0
 23
0.0
 33
0.0
 40
0.0
 40
0.0
 40
0.0
 40
0.0
 40
1.0
 40
1.0
 40
1.0
 40
1.0
 10
436.1944343396208
 20
-462.1294969204166
 30
0.0
 10
436.6144338013204
 20
-461.9601889067592
 30
0.0
 10
437.0018765772949
 20
-461.7203358874082
 30
0.0
 10
437.3404843246818
 20
-461.4208011308509
 30
0.0
  0
SPLINE
  5
634
330
DF
100
AcDbEntity
  8
Drawing
 62
   250
420
  1842203
370
   100
100
AcDbSpline
210
0.0
220
0.0
230
1.0
 70
     8
 71
     3
 72
     8
 73
     4
 74
     0
 42
0.0000000001
 43
0.0000000001
 12
1.0
 22
0.0
 32
0.0
 13
1.0
 23
0.0
 33
0.0
 40
0.0
 40
0.0
 40
0.0
 40
0.0
 40
1.0
 40
1.0
 40
1.0
 40
1.0
 10
437.3404843246818
 20
-621.4206331265519
 30
0.0
 10
437.0018765772949
 20
-621.1211149298524
 30
0.0
 10
436.6144338013204
 20
-620.8823548612961
 30
0.0
 10
436.1944343396208
 20
-620.713046847636
 30
0.0
  0
SPLINE
  5
635
330
DF
100
AcDbEntity
  8
Drawing
 62
   250
420
  1842203
370
   100
100
AcDbSpline
210
0.0
220
0.0
230
1.0
 70
     8
 71
     3
 72
    11
 73
     7
 74
     0
 42
0.0000000001
 43
0.0000000001
 12
1.0
 22
0.0
 32
0.0
 13
1.0
 23
0.0
 33
0.0
 40
0.0
 40
0.0
 40
0.0
 40
0.0
 40
1.0
 40
1.0
 40
1.0
 40
2.0
 40
2.0
 40
2.0
 40
2.0
 10
438.6951305924161
 20
-625.4206011886763
 30
0.0
 10
438.4097048369954
 20
-625.4206011886763
 30
0.0
 10
438.1253720323673
 20
-624.7184465440047
 30
0.0
 10
437.8410226678786
 20
-623.61473184229
 30
0.0
 10
437.6739005558048
 20
-622.9679036915147
 30
0.0
 10
437.5078548346629
 20
-622.1952040411516
 30
0.0
 10
437.3407161627288
 20
-621.4203184892026
 30
0.0
  0
SPLINE
  5
636
330
DF
100
AcDbEntity
  8
Drawing
 62
   250
420
  1842203
370
   100
100
AcDbSpline
210
0.0
220
0.0
230
1.0
 70
     8
 71
     3
 72
    11
 73
     7
 74
     0
 42
0.0000000001
 43
0.0000000001
 12
1.0
 22
0.0
 32
0.0
 13
1.0
 23
0.0
 33
0.0
 40
0.0
 40
0.0
 40
0.0
 40
0.0
 40
1.0
 40
1.0
 40
1.0
 40
2.0
 40
2.0
 40
2.0
 40
2.0
 10
595.0484481883071
 20
-621.4203184892026
 30
0.0
 10
594.764115383679
 20
-622.7410832823724
 30
0.0
 10
594.4786896282593
 20
-624.0412310492289
 30
0.0
 10
594.1943568236312
 20
-624.7651122308694
 30
0.0
 10
594.0282945426284
 20
-625.1894420960864
 30
0.0
 10
593.8611724305546
 20
-625.4206011886763
 30
0.0
 10
593.6940503184808
 20
-625.4206011886763
 30
0.0
  0
POLYLINE
  5
637
330
DF
100
AcDbEntity
  8
Drawing
 62
   250
420
  1842203
370
   100
100
AcDb2dPolyline
 66
     1
 10
0.0
 20
0.0
 30
0.0
  0
VERTEX
  5
638
330
637
100
AcDbEntity
  8
Drawing
 62
   250
420
  1842203
370
   100
100
AcDbVertex
100
AcDb2dVertex
 10
593.6940503184808
 20
-625.4206011886763
 30
0.0
  0
VERTEX
  5
639
330
637
100
AcDbEntity
  8
Drawing
 62
   250
420
  1842203
370
   100
100
AcDbVertex
100
AcDb2dVertex
 10
438.6951305924161
 20
-625.4206011886763
 30
0.0
  0
SEQEND
  5
63A
330
637
100
AcDbEntity
  8
Drawing
 62
   250
420
  1842203
370
   100
  0
SPLINE
  5
63B
330
DF
100
AcDbEntity
  8
Drawing
 62
   250
420
  1842203
370
   100
100
AcDbSpline
210
0.0
220
0.0
230
1.0
 70
     8
 71
     3
 72
    11
 73
     7
 74
     0
 42
0.0000000001
 43
0.0000000001
 12
1.0
 22
0.0
 32
0.0
 13
1.0
 23
0.0
 33
0.0
 40
0.0
 40
0.0
 40
0.0
 40
0.0
 40
1.0
 40
1.0
 40
1.0
 40
2.0
 40
2.0
 40
2.0
 40
2.0
 10
600.194027399192
 20
-620.4209971480204
 30
0.0
 10
600.194027399192
 20
-620.4817718360224
 30
0.0
 10
599.4918561946586
 20
-620.543639474816
 30
0.0
 10
598.3881414929419
 20
-620.604414162818
 30
0.0
 10
597.7413133421692
 20
-620.640216581199
 30
0.0
 10
596.9685971319442
 20
-620.677128510234
 30
0.0
 10
596.1937281398558
 20
-620.7129309286149
 30
0.0
  0
SPLINE
  5
63C
330
DF
100
AcDbEntity
  8
Drawing
 62
   250
420
  1842203
370
   100
100
AcDbSpline
210
0.0
220
0.0
230
1.0
 70
     8
 71
     3
 72
    11
 73
     7
 74
     0
 42
0.0000000001
 43
0.0000000001
 12
1.0
 22
0.0
 32
0.0
 13
1.0
 23
0.0
 33
0.0
 40
0.0
 40
0.0
 40
0.0
 40
0.0
 40
1.0
 40
1.0
 40
1.0
 40
2.0
 40
2.0
 40
2.0
 40
2.0
 10
596.1937281398558
 20
-462.1293975612539
 30
0.0
 10
597.514476373165
 20
-462.1912652000478
 30
0.0
 10
598.8146241400242
 20
-462.2520398880498
 30
0.0
 10
599.5385218815213
 20
-462.3138744071237
 30
0.0
 10
599.9628517467389
 20
-462.3497099452249
 30
0.0
 10
600.194027399192
 20
-462.3855123636059
 30
0.0
 10
600.194027399192
 20
-462.4213147819875
 30
0.0
  0
POLYLINE
  5
63D
330
DF
100
AcDbEntity
  8
Drawing
 62
   250
420
  1842203
370
   100
100
AcDb2dPolyline
 66
     1
 10
0.0
 20
0.0
 30
0.0
  0
VERTEX
  5
63E
330
63D
100
AcDbEntity
  8
Drawing
 62
   250
420
  1842203
370
   100
100
AcDbVertex
100
AcDb2dVertex
 10
600.194027399192
 20
-462.4213147819875
 30
0.0
  0
VERTEX
  5
63F
330
63D
100
AcDbEntity
  8
Drawing
 62
   250
420
  1842203
370
   100
100
AcDbVertex
100
AcDb2dVertex
 10
600.194027399192
 20
-620.4209971480204
 30
0.0
  0
SEQEND
  5
640
330
63D
100
AcDbEntity
  8
Drawing
 62
   250
420
  1842203
370
   100
  0
POLYLINE
  5
641
330
DF
100
AcDbEntity
  8
Drawing
 62
   250
420
  1842203
370
   100
100
AcDb2dPolyline
 66
     1
 10
0.0
 20
0.0
 30
0.0
  0
VERTEX
  5
642
330
641
100
AcDbEntity
  8
Drawing
 62
   250
420
  1842203
370
   100
100
AcDbVertex
100
AcDb2dVertex
 10
499.4268788756334
 20
-537.9212625699803
 30
0.0
  0
VERTEX
  5
643
330
641
100
AcDbEntity
  8
Drawing
 62
   250
420
  1842203
370
   100
100
AcDbVertex
100
AcDb2dVertex
 10
501.6940065761353
 20
-539.7803387481259
 30
0.0
  0
SEQEND
  5
644
330
641
100
AcDbEntity
  8
Drawing
 62
   250
420
  1842203
370
   100
  0
POLYLINE
  5
645
330
DF
100
AcDbEntity
  8
Drawing
 62
   250
420
  1842203
370
   100
100
AcDb2dPolyline
 66
     1
 10
0.0
 20
0.0
 30
0.0
  0
VERTEX
  5
646
330
645
100
AcDbEntity
  8
Drawing
 62
   250
420
  1842203
370
   100
100
AcDbVertex
100
AcDb2dVertex
 10
477.4795327318349
 20
-519.9210254136234
 30
0.0
  0
VERTEX
  5
647
330
645
100
AcDbEntity
  8
Drawing
 62
   250
420
  1842203
370
   100
100
AcDbVertex
100
AcDb2dVertex
 10
483.694845810708
 20
-525.0185479093607
 30
0.0
  0
SEQEND
  5
648
330
645
100
AcDbEntity
  8
Drawing
 62
   250
420
  1842203
370
   100
  0
POLYLINE
  5
649
330
DF
100
AcDbEntity
  8
Drawing
 62
   250
420
  1842203
370
   100
100
AcDb2dPolyline
 66
     1
 10
0.0
 20
0.0
 30
0.0
  0
VERTEX
  5
64A
330
649
100
AcDbEntity
  8
Drawing
 62
   250
420
  1842203
370
   100
100
AcDbVertex
100
AcDb2dVertex
 10
458.6946397058372
 20
-504.5145923256673
 30
0.0
  0
VERTEX
  5
64B
330
649
100
AcDbEntity
  8
Drawing
 62
   250
420
  1842203
370
   100
100
AcDbVertex
100
AcDb2dVertex
 10
464.0678010794473
 20
-508.9207737656355
 30
0.0
  0
SEQEND
  5
64C
330
649
100
AcDbEntity
  8
Drawing
 62
   250
420
  1842203
370
   100
  0
POLYLINE
  5
64D
330
DF
100
AcDbEntity
  8
Drawing
 62
   250
420
  1842203
370
   100
100
AcDb2dPolyline
 66
     1
 10
0.0
 20
0.0
 30
0.0
  0
VERTEX
  5
64E
330
64D
100
AcDbEntity
  8
Drawing
 62
   250
420
  1842203
370
   100
100
AcDbVertex
100
AcDb2dVertex
 10
440.6944025494781
 20
-489.7517085361104
 30
0.0
  0
VERTEX
  5
64F
330
64D
100
AcDbEntity
  8
Drawing
 62
   250
420
  1842203
370
   100
100
AcDbVertex
100
AcDb2dVertex
 10
442.1204383757882
 20
-490.9216295600667
 30
0.0
  0
SEQEND
  5
650
330
64D
100
AcDbEntity
  8
Drawing
 62
   250
420
  1842203
370
   100
  0
POLYLINE
  5
651
330
DF
100
AcDbEntity
  8
Drawing
 62
   250
420
  1842203
370
   100
100
AcDb2dPolyline
 66
     1
 10
0.0
 20
0.0
 30
0.0
  0
VERTEX
  5
652
330
651
100
AcDbEntity
  8
Drawing
 62
   250
420
  1842203
370
   100
100
AcDbVertex
100
AcDb2dVertex
 10
445.2742306865523
 20
-490.9216295600667
 30
0.0
  0
VERTEX
  5
653
330
651
100
AcDbEntity
  8
Drawing
 62
   250
420
  1842203
370
   100
100
AcDbVertex
100
AcDb2dVertex
 10
440.6944025494781
 20
-487.1654888838106
 30
0.0
  0
SEQEND
  5
654
330
651
100
AcDbEntity
  8
Drawing
 62
   250
420
  1842203
370
   100
  0
POLYLINE
  5
655
330
DF
100
AcDbEntity
  8
Drawing
 62
   250
420
  1842203
370
   100
100
AcDb2dPolyline
 66
     1
 10
0.0
 20
0.0
 30
0.0
  0
VERTEX
  5
656
330
655
100
AcDbEntity
  8
Drawing
 62
   250
420
  1842203
370
   100
100
AcDbVertex
100
AcDb2dVertex
 10
465.6946086543489
 20
-507.6694444675044
 30
0.0
  0
VERTEX
  5
657
330
655
100
AcDbEntity
  8
Drawing
 62
   250
420
  1842203
370
   100
100
AcDbVertex
100
AcDb2dVertex
 10
458.6946397058372
 20
-501.928405793087
 30
0.0
  0
SEQEND
  5
658
330
655
100
AcDbEntity
  8
Drawing
 62
   250
420
  1842203
370
   100
  0
POLYLINE
  5
659
330
DF
100
AcDbEntity
  8
Drawing
 62
   250
420
  1842203
370
   100
100
AcDb2dPolyline
 66
     1
 10
0.0
 20
0.0
 30
0.0
  0
VERTEX
  5
65A
330
659
100
AcDbEntity
  8
Drawing
 62
   250
420
  1842203
370
   100
100
AcDbVertex
100
AcDb2dVertex
 10
483.694845810708
 20
-522.4312684259888
 30
0.0
  0
VERTEX
  5
65B
330
659
100
AcDbEntity
  8
Drawing
 62
   250
420
  1842203
370
   100
100
AcDbVertex
100
AcDb2dVertex
 10
480.6333084827384
 20
-519.9210254136234
 30
0.0
  0
SEQEND
  5
65C
330
659
100
AcDbEntity
  8
Drawing
 62
   250
420
  1842203
370
   100
  0
POLYLINE
  5
65D
330
DF
100
AcDbEntity
  8
Drawing
 62
   250
420
  1842203
370
   100
100
AcDb2dPolyline
 66
     1
 10
0.0
 20
0.0
 30
0.0
  0
VERTEX
  5
65E
330
65D
100
AcDbEntity
  8
Drawing
 62
   250
420
  1842203
370
   100
100
AcDbVertex
100
AcDb2dVertex
 10
512.6942747839825
 20
-541.4212553241687
 30
0.0
  0
VERTEX
  5
65F
330
65D
100
AcDbEntity
  8
Drawing
 62
   250
420
  1842203
370
   100
100
AcDbVertex
100
AcDb2dVertex
 10
519.6942437324941
 20
-541.4212553241687
 30
0.0
  0
SEQEND
  5
660
330
65D
100
AcDbEntity
  8
Drawing
 62
   250
420
  1842203
370
   100
  0
POLYLINE
  5
661
330
DF
100
AcDbEntity
  8
Drawing
 62
   250
420
  1842203
370
   100
100
AcDb2dPolyline
 66
     1
 10
0.0
 20
0.0
 30
0.0
  0
VERTEX
  5
662
330
661
100
AcDbEntity
  8
Drawing
 62
   250
420
  1842203
370
   100
100
AcDbVertex
100
AcDb2dVertex
 10
519.6942437324941
 20
-539.4211222543586
 30
0.0
  0
VERTEX
  5
663
330
661
100
AcDbEntity
  8
Drawing
 62
   250
420
  1842203
370
   100
100
AcDbVertex
100
AcDb2dVertex
 10
512.6942747839825
 20
-539.4211222543586
 30
0.0
  0
SEQEND
  5
664
330
661
100
AcDbEntity
  8
Drawing
 62
   250
420
  1842203
370
   100
  0
POLYLINE
  5
665
330
DF
100
AcDbEntity
  8
Drawing
 62
   250
420
  1842203
370
   100
100
AcDb2dPolyline
 66
     1
 10
0.0
 20
0.0
 30
0.0
  0
VERTEX
  5
666
330
665
100
AcDbEntity
  8
Drawing
 62
   250
420
  1842203
370
   100
100
AcDbVertex
100
AcDb2dVertex
 10
590.2691399717601
 20
-490.9216295600667
 30
0.0
  0
VERTEX
  5
667
330
665
100
AcDbEntity
  8
Drawing
 62
   250
420
  1842203
370
   100
100
AcDbVertex
100
AcDb2dVertex
 10
591.6941159669991
 20
-489.7517085361104
 30
0.0
  0
SEQEND
  5
668
330
665
100
AcDbEntity
  8
Drawing
 62
   250
420
  1842203
370
   100
  0
POLYLINE
  5
669
330
DF
100
AcDbEntity
  8
Drawing
 62
   250
420
  1842203
370
   100
100
AcDb2dPolyline
 66
     1
 10
0.0
 20
0.0
 30
0.0
  0
VERTEX
  5
66A
330
669
100
AcDbEntity
  8
Drawing
 62
   250
420
  1842203
370
   100
100
AcDbVertex
100
AcDb2dVertex
 10
568.3217938279619
 20
-508.9207737656355
 30
0.0
  0
VERTEX
  5
66B
330
669
100
AcDbEntity
  8
Drawing
 62
   250
420
  1842203
370
   100
100
AcDbVertex
100
AcDb2dVertex
 10
573.6938622507797
 20
-504.5145923256673
 30
0.0
  0
SEQEND
  5
66C
330
669
100
AcDbEntity
  8
Drawing
 62
   250
420
  1842203
370
   100
  0
POLYLINE
  5
66D
330
DF
100
AcDbEntity
  8
Drawing
 62
   250
420
  1842203
370
   100
100
AcDb2dPolyline
 66
     1
 10
0.0
 20
0.0
 30
0.0
  0
VERTEX
  5
66E
330
66D
100
AcDbEntity
  8
Drawing
 62
   250
420
  1842203
370
   100
100
AcDbVertex
100
AcDb2dVertex
 10
548.6947490967015
 20
-525.0185479093607
 30
0.0
  0
VERTEX
  5
66F
330
66D
100
AcDbEntity
  8
Drawing
 62
   250
420
  1842203
370
   100
100
AcDbVertex
100
AcDb2dVertex
 10
554.9089857846424
 20
-519.9210254136234
 30
0.0
  0
SEQEND
  5
670
330
66D
100
AcDbEntity
  8
Drawing
 62
   250
420
  1842203
370
   100
  0
POLYLINE
  5
671
330
DF
100
AcDbEntity
  8
Drawing
 62
   250
420
  1842203
370
   100
100
AcDb2dPolyline
 66
     1
 10
0.0
 20
0.0
 30
0.0
  0
VERTEX
  5
672
330
671
100
AcDbEntity
  8
Drawing
 62
   250
420
  1842203
370
   100
100
AcDbVertex
100
AcDb2dVertex
 10
530.694511940342
 20
-539.7803387481259
 30
0.0
  0
VERTEX
  5
673
330
671
100
AcDbEntity
  8
Drawing
 62
   250
420
  1842203
370
   100
100
AcDbVertex
100
AcDb2dVertex
 10
532.9616230809829
 20
-537.9212625699803
 30
0.0
  0
SEQEND
  5
674
330
671
100
AcDbEntity
  8
Drawing
 62
   250
420
  1842203
370
   100
  0
POLYLINE
  5
675
330
DF
100
AcDbEntity
  8
Drawing
 62
   250
420
  1842203
370
   100
100
AcDb2dPolyline
 66
     1
 10
0.0
 20
0.0
 30
0.0
  0
VERTEX
  5
676
330
675
100
AcDbEntity
  8
Drawing
 62
   250
420
  1842203
370
   100
100
AcDbVertex
100
AcDb2dVertex
 10
551.7551934738782
 20
-519.9210254136234
 30
0.0
  0
VERTEX
  5
677
330
675
100
AcDbEntity
  8
Drawing
 62
   250
420
  1842203
370
   100
100
AcDbVertex
100
AcDb2dVertex
 10
548.6947490967015
 20
-522.4312684259888
 30
0.0
  0
SEQEND
  5
678
330
675
100
AcDbEntity
  8
Drawing
 62
   250
420
  1842203
370
   100
  0
POLYLINE
  5
679
330
DF
100
AcDbEntity
  8
Drawing
 62
   250
420
  1842203
370
   100
100
AcDb2dPolyline
 66
     1
 10
0.0
 20
0.0
 30
0.0
  0
VERTEX
  5
67A
330
679
100
AcDbEntity
  8
Drawing
 62
   250
420
  1842203
370
   100
100
AcDbVertex
100
AcDb2dVertex
 10
573.6938622507797
 20
-501.928405793087
 30
0.0
  0
VERTEX
  5
67B
330
679
100
AcDbEntity
  8
Drawing
 62
   250
420
  1842203
370
   100
100
AcDbVertex
100
AcDb2dVertex
 10
566.6938933022681
 20
-507.6694444675044
 30
0.0
  0
SEQEND
  5
67C
330
679
100
AcDbEntity
  8
Drawing
 62
   250
420
  1842203
370
   100
  0
POLYLINE
  5
67D
330
DF
100
AcDbEntity
  8
Drawing
 62
   250
420
  1842203
370
   100
100
AcDb2dPolyline
 66
     1
 10
0.0
 20
0.0
 30
0.0
  0
VERTEX
  5
67E
330
67D
100
AcDbEntity
  8
Drawing
 62
   250
420
  1842203
370
   100
100
AcDbVertex
100
AcDb2dVertex
 10
591.6941159669991
 20
-487.1654888838106
 30
0.0
  0
VERTEX
  5
67F
330
67D
100
AcDbEntity
  8
Drawing
 62
   250
420
  1842203
370
   100
100
AcDbVertex
100
AcDb2dVertex
 10
587.115347660996
 20
-490.9216295600667
 30
0.0
  0
SEQEND
  5
680
330
67D
100
AcDbEntity
  8
Drawing
 62
   250
420
  1842203
370
   100
  0
POLYLINE
  5
681
330
DF
100
AcDbEntity
  8
Drawing
 62
   250
420
  1842203
370
   100
100
AcDb2dPolyline
 66
     1
 10
0.0
 20
0.0
 30
0.0
  0
VERTEX
  5
682
330
681
100
AcDbEntity
  8
Drawing
 62
   250
420
  1842203
370
   100
100
AcDbVertex
100
AcDb2dVertex
 10
499.4264317594003
 20
-544.9214799164002
 30
0.0
  0
VERTEX
  5
683
330
681
100
AcDbEntity
  8
Drawing
 62
   250
420
  1842203
370
   100
100
AcDbVertex
100
AcDb2dVertex
 10
501.6946358508334
 20
-543.0613107874605
 30
0.0
  0
SEQEND
  5
684
330
681
100
AcDbEntity
  8
Drawing
 62
   250
420
  1842203
370
   100
  0
POLYLINE
  5
685
330
DF
100
AcDbEntity
  8
Drawing
 62
   250
420
  1842203
370
   100
100
AcDb2dPolyline
 66
     1
 10
0.0
 20
0.0
 30
0.0
  0
VERTEX
  5
686
330
685
100
AcDbEntity
  8
Drawing
 62
   250
420
  1842203
370
   100
100
AcDbVertex
100
AcDb2dVertex
 10
477.480162006534
 20
-562.9206241219656
 30
0.0
  0
VERTEX
  5
687
330
685
100
AcDbEntity
  8
Drawing
 62
   250
420
  1842203
370
   100
100
AcDbVertex
100
AcDb2dVertex
 10
483.6943986944746
 20
-557.8241945770199
 30
0.0
  0
SEQEND
  5
688
330
685
100
AcDbEntity
  8
Drawing
 62
   250
420
  1842203
370
   100
  0
POLYLINE
  5
689
330
DF
100
AcDbEntity
  8
Drawing
 62
   250
420
  1842203
370
   100
100
AcDb2dPolyline
 66
     1
 10
0.0
 20
0.0
 30
0.0
  0
VERTEX
  5
68A
330
689
100
AcDbEntity
  8
Drawing
 62
   250
420
  1842203
370
   100
100
AcDbVertex
100
AcDb2dVertex
 10
458.6941925896041
 20
-578.3270572099217
 30
0.0
  0
VERTEX
  5
68B
330
689
100
AcDbEntity
  8
Drawing
 62
   250
420
  1842203
370
   100
100
AcDbVertex
100
AcDb2dVertex
 10
464.0673539632141
 20
-573.9208757699535
 30
0.0
  0
SEQEND
  5
68C
330
689
100
AcDbEntity
  8
Drawing
 62
   250
420
  1842203
370
   100
  0
POLYLINE
  5
68D
330
DF
100
AcDbEntity
  8
Drawing
 62
   250
420
  1842203
370
   100
100
AcDb2dPolyline
 66
     1
 10
0.0
 20
0.0
 30
0.0
  0
VERTEX
  5
68E
330
68D
100
AcDbEntity
  8
Drawing
 62
   250
420
  1842203
370
   100
100
AcDbVertex
100
AcDb2dVertex
 10
440.6950318241769
 20
-593.0899409994786
 30
0.0
  0
VERTEX
  5
68F
330
68D
100
AcDbEntity
  8
Drawing
 62
   250
420
  1842203
370
   100
100
AcDbVertex
100
AcDb2dVertex
 10
442.119991259555
 20
-591.9211129263142
 30
0.0
  0
SEQEND
  5
690
330
68D
100
AcDbEntity
  8
Drawing
 62
   250
420
  1842203
370
   100
  0
POLYLINE
  5
691
330
DF
100
AcDbEntity
  8
Drawing
 62
   250
420
  1842203
370
   100
100
AcDb2dPolyline
 66
     1
 10
0.0
 20
0.0
 30
0.0
  0
VERTEX
  5
692
330
691
100
AcDbEntity
  8
Drawing
 62
   250
420
  1842203
370
   100
100
AcDbVertex
100
AcDb2dVertex
 10
480.6339377574372
 20
-562.9206241219656
 30
0.0
  0
VERTEX
  5
693
330
691
100
AcDbEntity
  8
Drawing
 62
   250
420
  1842203
370
   100
100
AcDbVertex
100
AcDb2dVertex
 10
483.6943986944746
 20
-560.4103811095995
 30
0.0
  0
SEQEND
  5
694
330
691
100
AcDbEntity
  8
Drawing
 62
   250
420
  1842203
370
   100
  0
POLYLINE
  5
695
330
DF
100
AcDbEntity
  8
Drawing
 62
   250
420
  1842203
370
   100
100
AcDb2dPolyline
 66
     1
 10
0.0
 20
0.0
 30
0.0
  0
VERTEX
  5
696
330
695
100
AcDbEntity
  8
Drawing
 62
   250
420
  1842203
370
   100
100
AcDbVertex
100
AcDb2dVertex
 10
458.6941925896041
 20
-580.9143366932942
 30
0.0
  0
VERTEX
  5
697
330
695
100
AcDbEntity
  8
Drawing
 62
   250
420
  1842203
370
   100
100
AcDbVertex
100
AcDb2dVertex
 10
465.6941615381154
 20
-575.1732814590188
 30
0.0
  0
SEQEND
  5
698
330
695
100
AcDbEntity
  8
Drawing
 62
   250
420
  1842203
370
   100
  0
POLYLINE
  5
699
330
DF
100
AcDbEntity
  8
Drawing
 62
   250
420
  1842203
370
   100
100
AcDb2dPolyline
 66
     1
 10
0.0
 20
0.0
 30
0.0
  0
VERTEX
  5
69A
330
699
100
AcDbEntity
  8
Drawing
 62
   250
420
  1842203
370
   100
100
AcDbVertex
100
AcDb2dVertex
 10
440.6950318241769
 20
-595.6761440919207
 30
0.0
  0
VERTEX
  5
69B
330
699
100
AcDbEntity
  8
Drawing
 62
   250
420
  1842203
370
   100
100
AcDbVertex
100
AcDb2dVertex
 10
445.2737835703198
 20
-591.9211129263142
 30
0.0
  0
SEQEND
  5
69C
330
699
100
AcDbEntity
  8
Drawing
 62
   250
420
  1842203
370
   100
  0
POLYLINE
  5
69D
330
DF
100
AcDbEntity
  8
Drawing
 62
   250
420
  1842203
370
   100
100
AcDb2dPolyline
 66
     1
 10
0.0
 20
0.0
 30
0.0
  0
VERTEX
  5
69E
330
69D
100
AcDbEntity
  8
Drawing
 62
   250
420
  1842203
370
   100
100
AcDbVertex
100
AcDb2dVertex
 10
512.6949040586812
 20
-541.4214871622131
 30
0.0
  0
VERTEX
  5
69F
330
69D
100
AcDbEntity
  8
Drawing
 62
   250
420
  1842203
370
   100
100
AcDbVertex
100
AcDb2dVertex
 10
519.6948730071929
 20
-541.4214871622131
 30
0.0
  0
SEQEND
  5
6A0
330
69D
100
AcDbEntity
  8
Drawing
 62
   250
420
  1842203
370
   100
  0
POLYLINE
  5
6A1
330
DF
100
AcDbEntity
  8
Drawing
 62
   250
420
  1842203
370
   100
100
AcDb2dPolyline
 66
     1
 10
0.0
 20
0.0
 30
0.0
  0
VERTEX
  5
6A2
330
6A1
100
AcDbEntity
  8
Drawing
 62
   250
420
  1842203
370
   100
100
AcDbVertex
100
AcDb2dVertex
 10
512.6949040586812
 20
-543.4205272812278
 30
0.0
  0
VERTEX
  5
6A3
330
6A1
100
AcDbEntity
  8
Drawing
 62
   250
420
  1842203
370
   100
100
AcDbVertex
100
AcDb2dVertex
 10
519.6948730071929
 20
-543.4205272812278
 30
0.0
  0
SEQEND
  5
6A4
330
6A1
100
AcDbEntity
  8
Drawing
 62
   250
420
  1842203
370
   100
  0
POLYLINE
  5
6A5
330
DF
100
AcDbEntity
  8
Drawing
 62
   250
420
  1842203
370
   100
100
AcDb2dPolyline
 66
     1
 10
0.0
 20
0.0
 30
0.0
  0
VERTEX
  5
6A6
330
6A5
100
AcDbEntity
  8
Drawing
 62
   250
420
  1842203
370
   100
100
AcDbVertex
100
AcDb2dVertex
 10
590.2687094153872
 20
-591.9211129263142
 30
0.0
  0
VERTEX
  5
6A7
330
6A5
100
AcDbEntity
  8
Drawing
 62
   250
420
  1842203
370
   100
100
AcDbVertex
100
AcDb2dVertex
 10
591.693652290905
 20
-593.0899409994786
 30
0.0
  0
SEQEND
  5
6A8
330
6A5
100
AcDbEntity
  8
Drawing
 62
   250
420
  1842203
370
   100
  0
POLYLINE
  5
6A9
330
DF
100
AcDbEntity
  8
Drawing
 62
   250
420
  1842203
370
   100
100
AcDb2dPolyline
 66
     1
 10
0.0
 20
0.0
 30
0.0
  0
VERTEX
  5
6AA
330
6A9
100
AcDbEntity
  8
Drawing
 62
   250
420
  1842203
370
   100
100
AcDbVertex
100
AcDb2dVertex
 10
568.3213467117283
 20
-573.9208757699535
 30
0.0
  0
VERTEX
  5
6AB
330
6A9
100
AcDbEntity
  8
Drawing
 62
   250
420
  1842203
370
   100
100
AcDbVertex
100
AcDb2dVertex
 10
573.6945080853384
 20
-578.3270572099217
 30
0.0
  0
SEQEND
  5
6AC
330
6A9
100
AcDbEntity
  8
Drawing
 62
   250
420
  1842203
370
   100
  0
POLYLINE
  5
6AD
330
DF
100
AcDbEntity
  8
Drawing
 62
   250
420
  1842203
370
   100
100
AcDb2dPolyline
 66
     1
 10
0.0
 20
0.0
 30
0.0
  0
VERTEX
  5
6AE
330
6AD
100
AcDbEntity
  8
Drawing
 62
   250
420
  1842203
370
   100
100
AcDbVertex
100
AcDb2dVertex
 10
548.6943019804679
 20
-557.8241945770199
 30
0.0
  0
VERTEX
  5
6AF
330
6AD
100
AcDbEntity
  8
Drawing
 62
   250
420
  1842203
370
   100
100
AcDbVertex
100
AcDb2dVertex
 10
554.9096150593411
 20
-562.9206241219656
 30
0.0
  0
SEQEND
  5
6B0
330
6AD
100
AcDbEntity
  8
Drawing
 62
   250
420
  1842203
370
   100
  0
POLYLINE
  5
6B1
330
DF
100
AcDbEntity
  8
Drawing
 62
   250
420
  1842203
370
   100
100
AcDb2dPolyline
 66
     1
 10
0.0
 20
0.0
 30
0.0
  0
VERTEX
  5
6B2
330
6B1
100
AcDbEntity
  8
Drawing
 62
   250
420
  1842203
370
   100
100
AcDbVertex
100
AcDb2dVertex
 10
530.6940482642485
 20
-543.0613107874605
 30
0.0
  0
VERTEX
  5
6B3
330
6B1
100
AcDbEntity
  8
Drawing
 62
   250
420
  1842203
370
   100
100
AcDbVertex
100
AcDb2dVertex
 10
532.9622689155423
 20
-544.9214799164002
 30
0.0
  0
SEQEND
  5
6B4
330
6B1
100
AcDbEntity
  8
Drawing
 62
   250
420
  1842203
370
   100
  0
POLYLINE
  5
6B5
330
DF
100
AcDbEntity
  8
Drawing
 62
   250
420
  1842203
370
   100
100
AcDb2dPolyline
 66
     1
 10
0.0
 20
0.0
 30
0.0
  0
VERTEX
  5
6B6
330
6B5
100
AcDbEntity
  8
Drawing
 62
   250
420
  1842203
370
   100
100
AcDbVertex
100
AcDb2dVertex
 10
587.1149171046237
 20
-591.9211129263142
 30
0.0
  0
VERTEX
  5
6B7
330
6B5
100
AcDbEntity
  8
Drawing
 62
   250
420
  1842203
370
   100
100
AcDbVertex
100
AcDb2dVertex
 10
591.693652290905
 20
-595.6761440919207
 30
0.0
  0
SEQEND
  5
6B8
330
6B5
100
AcDbEntity
  8
Drawing
 62
   250
420
  1842203
370
   100
  0
POLYLINE
  5
6B9
330
DF
100
AcDbEntity
  8
Drawing
 62
   250
420
  1842203
370
   100
100
AcDb2dPolyline
 66
     1
 10
0.0
 20
0.0
 30
0.0
  0
VERTEX
  5
6BA
330
6B9
100
AcDbEntity
  8
Drawing
 62
   250
420
  1842203
370
   100
100
AcDbVertex
100
AcDb2dVertex
 10
566.6945391368267
 20
-575.1732814590188
 30
0.0
  0
VERTEX
  5
6BB
330
6B9
100
AcDbEntity
  8
Drawing
 62
   250
420
  1842203
370
   100
100
AcDbVertex
100
AcDb2dVertex
 10
573.6945080853384
 20
-580.9143366932942
 30
0.0
  0
SEQEND
  5
6BC
330
6B9
100
AcDbEntity
  8
Drawing
 62
   250
420
  1842203
370
   100
  0
POLYLINE
  5
6BD
330
DF
100
AcDbEntity
  8
Drawing
 62
   250
420
  1842203
370
   100
100
AcDb2dPolyline
 66
     1
 10
0.0
 20
0.0
 30
0.0
  0
VERTEX
  5
6BE
330
6BD
100
AcDbEntity
  8
Drawing
 62
   250
420
  1842203
370
   100
100
AcDbVertex
100
AcDb2dVertex
 10
548.6943019804679
 20
-560.4103811095995
 30
0.0
  0
VERTEX
  5
6BF
330
6BD
100
AcDbEntity
  8
Drawing
 62
   250
420
  1842203
370
   100
100
AcDbVertex
100
AcDb2dVertex
 10
551.7558393084375
 20
-562.9206241219656
 30
0.0
  0
SEQEND
  5
6C0
330
6BD
100
AcDbEntity
  8
Drawing
 62
   250
420
  1842203
370
   100
  0
POLYLINE
  5
6C1
330
DF
100
AcDbEntity
  8
Drawing
 62
   250
420
  1842203
370
   100
100
AcDb2dPolyline
 66
     1
 10
0.0
 20
0.0
 30
0.0
  0
VERTEX
  5
6C2
330
6C1
100
AcDbEntity
  8
Drawing
 62
   250
420
  1842203
370
   100
100
AcDbVertex
100
AcDb2dVertex
 10
595.1940756014637
 20
-406.139973482734
 30
0.0
  0
VERTEX
  5
6C3
330
6C1
100
AcDbEntity
  8
Drawing
 62
   250
420
  1842203
370
   100
100
AcDbVertex
100
AcDb2dVertex
 10
593.8938947148847
 20
-406.139973482734
 30
0.0
  0
VERTEX
  5
6C4
330
6C1
100
AcDbEntity
  8
Drawing
 62
   250
420
  1842203
370
   100
100
AcDbVertex
100
AcDb2dVertex
 10
593.8938947148847
 20
-427.1398968881311
 30
0.0
  0
SEQEND
  5
6C5
330
6C1
100
AcDbEntity
  8
Drawing
 62
   250
420
  1842203
370
   100
  0
POLYLINE
  5
6C6
330
DF
100
AcDbEntity
  8
Drawing
 62
   250
420
  1842203
370
   100
100
AcDb2dPolyline
 66
     1
 10
0.0
 20
0.0
 30
0.0
  0
VERTEX
  5
6C7
330
6C6
100
AcDbEntity
  8
Drawing
 62
   250
420
  1842203
370
   100
100
AcDbVertex
100
AcDb2dVertex
 10
595.1940756014637
 20
-427.1398968881311
 30
0.0
  0
VERTEX
  5
6C8
330
6C6
100
AcDbEntity
  8
Drawing
 62
   250
420
  1842203
370
   100
100
AcDbVertex
100
AcDb2dVertex
 10
593.8938947148847
 20
-427.1398968881311
 30
0.0
  0
SEQEND
  5
6C9
330
6C6
100
AcDbEntity
  8
Drawing
 62
   250
420
  1842203
370
   100
  0
POLYLINE
  5
6CA
330
DF
100
AcDbEntity
  8
Drawing
 62
   250
420
  1842203
370
   100
100
AcDb2dPolyline
 66
     1
 10
0.0
 20
0.0
 30
0.0
  0
VERTEX
  5
6CB
330
6CA
100
AcDbEntity
  8
Drawing
 62
   250
420
  1842203
370
   100
100
AcDbVertex
100
AcDb2dVertex
 10
595.1940756014637
 20
-427.1398968881311
 30
0.0
  0
VERTEX
  5
6CC
330
6CA
100
AcDbEntity
  8
Drawing
 62
   250
420
  1842203
370
   100
100
AcDbVertex
100
AcDb2dVertex
 10
600.1938949203079
 20
-427.1398968881311
 30
0.0
  0
VERTEX
  5
6CD
330
6CA
100
AcDbEntity
  8
Drawing
 62
   250
420
  1842203
370
   100
100
AcDbVertex
100
AcDb2dVertex
 10
600.1938949203079
 20
-406.139973482734
 30
0.0
  0
SEQEND
  5
6CE
330
6CA
100
AcDbEntity
  8
Drawing
 62
   250
420
  1842203
370
   100
  0
POLYLINE
  5
6CF
330
DF
100
AcDbEntity
  8
Drawing
 62
   250
420
  1842203
370
   100
100
AcDb2dPolyline
 66
     1
 10
0.0
 20
0.0
 30
0.0
  0
VERTEX
  5
6D0
330
6CF
100
AcDbEntity
  8
Drawing
 62
   250
420
  1842203
370
   100
100
AcDbVertex
100
AcDb2dVertex
 10
595.1940756014637
 20
-406.139973482734
 30
0.0
  0
VERTEX
  5
6D1
330
6CF
100
AcDbEntity
  8
Drawing
 62
   250
420
  1842203
370
   100
100
AcDbVertex
100
AcDb2dVertex
 10
600.1938949203079
 20
-406.139973482734
 30
0.0
  0
SEQEND
  5
6D2
330
6CF
100
AcDbEntity
  8
Drawing
 62
   250
420
  1842203
370
   100
  0
POLYLINE
  5
6D3
330
DF
100
AcDbEntity
  8
Drawing
 62
   250
420
  1842203
370
   100
100
AcDb2dPolyline
 66
     1
 10
0.0
 20
0.0
 30
0.0
  0
VERTEX
  5
6D4
330
6D3
100
AcDbEntity
  8
Drawing
 62
   250
420
  1842203
370
   100
100
AcDbVertex
100
AcDb2dVertex
 10
595.0478851530507
 20
-402.1397073431216
 30
0.0
  0
VERTEX
  5
6D5
330
6D3
100
AcDbEntity
  8
Drawing
 62
   250
420
  1842203
370
   100
100
AcDbVertex
100
AcDb2dVertex
 10
595.0478851530507
 20
-404.1398404129278
 30
0.0
  0
SEQEND
  5
6D6
330
6D3
100
AcDbEntity
  8
Drawing
 62
   250
420
  1842203
370
   100
  0
SPLINE
  5
6D7
330
DF
100
AcDbEntity
  8
Drawing
 62
   250
420
  1842203
370
   100
100
AcDbSpline
210
0.0
220
0.0
230
1.0
 70
     8
 71
     3
 72
    11
 73
     7
 74
     0
 42
0.0000000001
 43
0.0000000001
 12
1.0
 22
0.0
 32
0.0
 13
1.0
 23
0.0
 33
0.0
 40
0.0
 40
0.0
 40
0.0
 40
0.0
 40
1.0
 40
1.0
 40
1.0
 40
2.0
 40
2.0
 40
2.0
 40
2.0
 10
595.0478851530507
 20
-404.1398404129278
 30
0.0
 10
594.7103620765258
 20
-404.1398404129278
 30
0.0
 10
594.3717791689298
 20
-404.6488242849756
 30
0.0
 10
594.0331631416126
 20
-405.3737818575424
 30
0.0
 10
593.9202911325067
 20
-405.6158207784773
 30
0.0
 10
593.8074191234014
 20
-405.8773672150695
 30
0.0
 10
593.6945471142955
 20
-406.140006602454
 30
0.0
  0
SPLINE
  5
6D8
330
DF
100
AcDbEntity
  8
Drawing
 62
   250
420
  1842203
370
   100
100
AcDbSpline
210
0.0
220
0.0
230
1.0
 70
     8
 71
     3
 72
    11
 73
     7
 74
     0
 42
0.0000000001
 43
0.0000000001
 12
1.0
 22
0.0
 32
0.0
 13
1.0
 23
0.0
 33
0.0
 40
0.0
 40
0.0
 40
0.0
 40
0.0
 40
1.0
 40
1.0
 40
1.0
 40
2.0
 40
2.0
 40
2.0
 40
2.0
 10
437.3401531274721
 20
-404.1398404129278
 30
0.0
 10
437.678760874859
 20
-404.1398404129278
 30
0.0
 10
438.0173520623856
 20
-404.6488242849756
 30
0.0
 10
438.3559680897031
 20
-405.3737818575424
 30
0.0
 10
438.4688235389478
 20
-405.6158207784773
 30
0.0
 10
438.5816955480537
 20
-405.8773672150695
 30
0.0
 10
438.6945675571594
 20
-406.140006602454
 30
0.0
  0
SPLINE
  5
6D9
330
DF
100
AcDbEntity
  8
Drawing
 62
   250
420
  1842203
370
   100
100
AcDbSpline
210
0.0
220
0.0
230
1.0
 70
     8
 71
     3
 72
    11
 73
     7
 74
     0
 42
0.0000000001
 43
0.0000000001
 12
1.0
 22
0.0
 32
0.0
 13
1.0
 23
0.0
 33
0.0
 40
0.0
 40
0.0
 40
0.0
 40
0.0
 40
1.0
 40
1.0
 40
1.0
 40
2.0
 40
2.0
 40
2.0
 40
2.0
 10
438.6945675571594
 20
-406.140006602454
 30
0.0
 10
438.4102181926706
 20
-404.820318200217
 30
0.0
 10
438.1258853880425
 20
-403.5201704333605
 30
0.0
 10
437.8415360235538
 20
-402.7952128607901
 30
0.0
 10
437.67441391148
 20
-402.3708498758532
 30
0.0
 10
437.5072835194762
 20
-402.1397073431216
 30
0.0
 10
437.3401531274721
 20
-402.1397073431216
 30
0.0
  0
POLYLINE
  5
6DA
330
DF
100
AcDbEntity
  8
Drawing
 62
   250
420
  1842203
370
   100
100
AcDb2dPolyline
 66
     1
 10
0.0
 20
0.0
 30
0.0
  0
VERTEX
  5
6DB
330
6DA
100
AcDbEntity
  8
Drawing
 62
   250
420
  1842203
370
   100
100
AcDbVertex
100
AcDb2dVertex
 10
437.3401531274721
 20
-402.1397073431216
 30
0.0
  0
VERTEX
  5
6DC
330
6DA
100
AcDbEntity
  8
Drawing
 62
   250
420
  1842203
370
   100
100
AcDbVertex
100
AcDb2dVertex
 10
595.0478851530507
 20
-402.1397073431216
 30
0.0
  0
SEQEND
  5
6DD
330
6DA
100
AcDbEntity
  8
Drawing
 62
   250
420
  1842203
370
   100
  0
SPLINE
  5
6DE
330
DF
100
AcDbEntity
  8
Drawing
 62
   250
420
  1842203
370
   100
100
AcDbSpline
210
0.0
220
0.0
230
1.0
 70
     8
 71
     3
 72
    11
 73
     7
 74
     0
 42
0.0000000001
 43
0.0000000001
 12
1.0
 22
0.0
 32
0.0
 13
1.0
 23
0.0
 33
0.0
 40
0.0
 40
0.0
 40
0.0
 40
0.0
 40
1.0
 40
1.0
 40
1.0
 40
2.0
 40
2.0
 40
2.0
 40
2.0
 10
595.0478851530507
 20
-402.1397073431216
 30
0.0
 10
594.7635523484226
 20
-402.1397073431216
 30
0.0
 10
594.4792195437946
 20
-402.8418785476519
 30
0.0
 10
594.1948536194452
 20
-403.9455932493697
 30
0.0
 10
594.027731507372
 20
-404.5934812312142
 30
0.0
 10
593.8606093952976
 20
-405.366197441438
 30
0.0
 10
593.6945471142955
 20
-406.140006602454
 30
0.0
  0
POLYLINE
  5
6DF
330
DF
100
AcDbEntity
  8
Drawing
 62
   250
420
  1842203
370
   100
100
AcDb2dPolyline
 66
     1
 10
0.0
 20
0.0
 30
0.0
  0
VERTEX
  5
6E0
330
6DF
100
AcDbEntity
  8
Drawing
 62
   250
420
  1842203
370
   100
100
AcDbVertex
100
AcDb2dVertex
 10
437.3401531274721
 20
-404.1398404129278
 30
0.0
  0
VERTEX
  5
6E1
330
6DF
100
AcDbEntity
  8
Drawing
 62
   250
420
  1842203
370
   100
100
AcDbVertex
100
AcDb2dVertex
 10
437.3401531274721
 20
-402.1397073431216
 30
0.0
  0
SEQEND
  5
6E2
330
6DF
100
AcDbEntity
  8
Drawing
 62
   250
420
  1842203
370
   100
  0
POLYLINE
  5
6E3
330
DF
100
AcDbEntity
  8
Drawing
 62
   250
420
  1842203
370
   100
100
AcDb2dPolyline
 66
     1
 10
0.0
 20
0.0
 30
0.0
  0
VERTEX
  5
6E4
330
6E3
100
AcDbEntity
  8
Drawing
 62
   250
420
  1842203
370
   100
100
AcDbVertex
100
AcDb2dVertex
 10
596.1939268581817
 20
-402.1397073431216
 30
0.0
  0
VERTEX
  5
6E5
330
6E3
100
AcDbEntity
  8
Drawing
 62
   250
420
  1842203
370
   100
100
AcDbVertex
100
AcDb2dVertex
 10
595.0478851530507
 20
-402.1397073431216
 30
0.0
  0
SEQEND
  5
6E6
330
6E3
100
AcDbEntity
  8
Drawing
 62
   250
420
  1842203
370
   100
  0
POLYLINE
  5
6E7
330
DF
100
AcDbEntity
  8
Drawing
 62
   250
420
  1842203
370
   100
100
AcDb2dPolyline
 66
     1
 10
0.0
 20
0.0
 30
0.0
  0
VERTEX
  5
6E8
330
6E7
100
AcDbEntity
  8
Drawing
 62
   250
420
  1842203
370
   100
100
AcDbVertex
100
AcDb2dVertex
 10
595.0478851530507
 20
-404.1398404129278
 30
0.0
  0
VERTEX
  5
6E9
330
6E7
100
AcDbEntity
  8
Drawing
 62
   250
420
  1842203
370
   100
100
AcDbVertex
100
AcDb2dVertex
 10
596.1939268581817
 20
-404.1398404129278
 30
0.0
  0
SEQEND
  5
6EA
330
6E7
100
AcDbEntity
  8
Drawing
 62
   250
420
  1842203
370
   100
  0
POLYLINE
  5
6EB
330
DF
100
AcDbEntity
  8
Drawing
 62
   250
420
  1842203
370
   100
100
AcDb2dPolyline
 66
     1
 10
0.0
 20
0.0
 30
0.0
  0
VERTEX
  5
6EC
330
6EB
100
AcDbEntity
  8
Drawing
 62
   250
420
  1842203
370
   100
100
AcDbVertex
100
AcDb2dVertex
 10
437.3401531274721
 20
-402.1397073431216
 30
0.0
  0
VERTEX
  5
6ED
330
6EB
100
AcDbEntity
  8
Drawing
 62
   250
420
  1842203
370
   100
100
AcDbVertex
100
AcDb2dVertex
 10
436.1951960932034
 20
-402.1397073431216
 30
0.0
  0
SEQEND
  5
6EE
330
6EB
100
AcDbEntity
  8
Drawing
 62
   250
420
  1842203
370
   100
  0
POLYLINE
  5
6EF
330
DF
100
AcDbEntity
  8
Drawing
 62
   250
420
  1842203
370
   100
100
AcDb2dPolyline
 66
     1
 10
0.0
 20
0.0
 30
0.0
  0
VERTEX
  5
6F0
330
6EF
100
AcDbEntity
  8
Drawing
 62
   250
420
  1842203
370
   100
100
AcDbVertex
100
AcDb2dVertex
 10
436.1951960932034
 20
-402.1397073431216
 30
0.0
  0
VERTEX
  5
6F1
330
6EF
100
AcDbEntity
  8
Drawing
 62
   250
420
  1842203
370
   100
100
AcDbVertex
100
AcDb2dVertex
 10
436.1951960932034
 20
-404.1398404129278
 30
0.0
  0
VERTEX
  5
6F2
330
6EF
100
AcDbEntity
  8
Drawing
 62
   250
420
  1842203
370
   100
100
AcDbVertex
100
AcDb2dVertex
 10
437.3401531274721
 20
-404.1398404129278
 30
0.0
  0
SEQEND
  5
6F3
330
6EF
100
AcDbEntity
  8
Drawing
 62
   250
420
  1842203
370
   100
  0
SPLINE
  5
6F4
330
DF
100
AcDbEntity
  8
Drawing
 62
   250
420
  1842203
370
   100
100
AcDbSpline
210
0.0
220
0.0
230
1.0
 70
     8
 71
     3
 72
    11
 73
     7
 74
     0
 42
0.0000000001
 43
0.0000000001
 12
1.0
 22
0.0
 32
0.0
 13
1.0
 23
0.0
 33
0.0
 40
0.0
 40
0.0
 40
0.0
 40
0.0
 40
1.0
 40
1.0
 40
1.0
 40
2.0
 40
2.0
 40
2.0
 40
2.0
 10
436.1951960932034
 20
-404.1398404129278
 30
0.0
 10
435.409463832633
 20
-404.1398404129278
 30
0.0
 10
434.6486955617526
 20
-404.6488242849756
 30
0.0
 10
434.3469914634695
 20
-405.3737818575424
 30
0.0
 10
434.2471437846396
 20
-405.6158207784773
 30
0.0
 10
434.1950547434656
 20
-405.8773672150695
 30
0.0
 10
434.1950547434656
 20
-406.140006602454
 30
0.0
  0
SPLINE
  5
6F5
330
DF
100
AcDbEntity
  8
Drawing
 62
   250
420
  1842203
370
   100
100
AcDbSpline
210
0.0
220
0.0
230
1.0
 70
     8
 71
     3
 72
    11
 73
     7
 74
     0
 42
0.0000000001
 43
0.0000000001
 12
1.0
 22
0.0
 32
0.0
 13
1.0
 23
0.0
 33
0.0
 40
0.0
 40
0.0
 40
0.0
 40
0.0
 40
1.0
 40
1.0
 40
1.0
 40
2.0
 40
2.0
 40
2.0
 40
2.0
 10
436.1951960932034
 20
-402.1397073431216
 30
0.0
 10
434.8744313000336
 20
-402.1397073431216
 30
0.0
 10
433.5742752532448
 20
-402.8418785476519
 30
0.0
 10
432.850402351538
 20
-403.9455932493697
 30
0.0
 10
432.4260642063897
 20
-404.5934812312142
 30
0.0
 10
432.1949051137978
 20
-405.366197441438
 30
0.0
 10
432.1949051137978
 20
-406.140006602454
 30
0.0
  0
POLYLINE
  5
6F6
330
DF
100
AcDbEntity
  8
Drawing
 62
   250
420
  1842203
370
   100
100
AcDb2dPolyline
 66
     1
 10
0.0
 20
0.0
 30
0.0
  0
VERTEX
  5
6F7
330
6F6
100
AcDbEntity
  8
Drawing
 62
   250
420
  1842203
370
   100
100
AcDbVertex
100
AcDb2dVertex
 10
437.1947327125716
 20
-427.1398968881311
 30
0.0
  0
VERTEX
  5
6F8
330
6F6
100
AcDbEntity
  8
Drawing
 62
   250
420
  1842203
370
   100
100
AcDbVertex
100
AcDb2dVertex
 10
438.4948721995001
 20
-427.1398968881311
 30
0.0
  0
VERTEX
  5
6F9
330
6F6
100
AcDbEntity
  8
Drawing
 62
   250
420
  1842203
370
   100
100
AcDbVertex
100
AcDb2dVertex
 10
438.4948721995001
 20
-406.140006602454
 30
0.0
  0
SEQEND
  5
6FA
330
6F6
100
AcDbEntity
  8
Drawing
 62
   250
420
  1842203
370
   100
  0
POLYLINE
  5
6FB
330
DF
100
AcDbEntity
  8
Drawing
 62
   250
420
  1842203
370
   100
100
AcDb2dPolyline
 66
     1
 10
0.0
 20
0.0
 30
0.0
  0
VERTEX
  5
6FC
330
6FB
100
AcDbEntity
  8
Drawing
 62
   250
420
  1842203
370
   100
100
AcDbVertex
100
AcDb2dVertex
 10
437.1947327125716
 20
-406.140006602454
 30
0.0
  0
VERTEX
  5
6FD
330
6FB
100
AcDbEntity
  8
Drawing
 62
   250
420
  1842203
370
   100
100
AcDbVertex
100
AcDb2dVertex
 10
438.4948721995001
 20
-406.140006602454
 30
0.0
  0
SEQEND
  5
6FE
330
6FB
100
AcDbEntity
  8
Drawing
 62
   250
420
  1842203
370
   100
  0
POLYLINE
  5
6FF
330
DF
100
AcDbEntity
  8
Drawing
 62
   250
420
  1842203
370
   100
100
AcDb2dPolyline
 66
     1
 10
0.0
 20
0.0
 30
0.0
  0
VERTEX
  5
700
330
6FF
100
AcDbEntity
  8
Drawing
 62
   250
420
  1842203
370
   100
100
AcDbVertex
100
AcDb2dVertex
 10
437.1947327125716
 20
-406.140006602454
 30
0.0
  0
VERTEX
  5
701
330
6FF
100
AcDbEntity
  8
Drawing
 62
   250
420
  1842203
370
   100
100
AcDbVertex
100
AcDb2dVertex
 10
432.1949051137978
 20
-406.140006602454
 30
0.0
  0
VERTEX
  5
702
330
6FF
100
AcDbEntity
  8
Drawing
 62
   250
420
  1842203
370
   100
100
AcDbVertex
100
AcDb2dVertex
 10
432.1949051137978
 20
-427.1398968881311
 30
0.0
  0
SEQEND
  5
703
330
6FF
100
AcDbEntity
  8
Drawing
 62
   250
420
  1842203
370
   100
  0
POLYLINE
  5
704
330
DF
100
AcDbEntity
  8
Drawing
 62
   250
420
  1842203
370
   100
100
AcDb2dPolyline
 66
     1
 10
0.0
 20
0.0
 30
0.0
  0
VERTEX
  5
705
330
704
100
AcDbEntity
  8
Drawing
 62
   250
420
  1842203
370
   100
100
AcDbVertex
100
AcDb2dVertex
 10
437.1947327125716
 20
-427.1398968881311
 30
0.0
  0
VERTEX
  5
706
330
704
100
AcDbEntity
  8
Drawing
 62
   250
420
  1842203
370
   100
100
AcDbVertex
100
AcDb2dVertex
 10
432.1949051137978
 20
-427.1398968881311
 30
0.0
  0
SEQEND
  5
707
330
704
100
AcDbEntity
  8
Drawing
 62
   250
420
  1842203
370
   100
  0
SPLINE
  5
708
330
DF
100
AcDbEntity
  8
Drawing
 62
   250
420
  1842203
370
   100
100
AcDbSpline
210
0.0
220
0.0
230
1.0
 70
     8
 71
     3
 72
    11
 73
     7
 74
     0
 42
0.0000000001
 43
0.0000000001
 12
1.0
 22
0.0
 32
0.0
 13
1.0
 23
0.0
 33
0.0
 40
0.0
 40
0.0
 40
0.0
 40
0.0
 40
1.0
 40
1.0
 40
1.0
 40
2.0
 40
2.0
 40
2.0
 40
2.0
 10
596.1940593370658
 20
-404.1398404129278
 30
0.0
 10
596.9786986468437
 20
-404.1398404129278
 30
0.0
 10
597.7405515885863
 20
-404.6488242849756
 30
0.0
 10
598.0411792959375
 20
-405.3737818575424
 30
0.0
 10
598.1420950857687
 20
-405.6158207784773
 30
0.0
 10
598.1941924068733
 20
-405.8773672150695
 30
0.0
 10
598.1941924068733
 20
-406.140006602454
 30
0.0
  0
SPLINE
  5
709
330
DF
100
AcDbEntity
  8
Drawing
 62
   250
420
  1842203
370
   100
100
AcDbSpline
210
0.0
220
0.0
230
1.0
 70
     8
 71
     3
 72
    11
 73
     7
 74
     0
 42
0.0000000001
 43
0.0000000001
 12
1.0
 22
0.0
 32
0.0
 13
1.0
 23
0.0
 33
0.0
 40
0.0
 40
0.0
 40
0.0
 40
0.0
 40
1.0
 40
1.0
 40
1.0
 40
2.0
 40
2.0
 40
2.0
 40
2.0
 10
600.1943585964013
 20
-406.140006602454
 30
0.0
 10
600.1943585964013
 20
-404.820318200217
 30
0.0
 10
599.4921873918679
 20
-403.5201704333605
 30
0.0
 10
598.388472690152
 20
-402.7952128607901
 30
0.0
 10
597.7405515885863
 20
-402.3708498758532
 30
0.0
 10
596.9678353783619
 20
-402.1397073431216
 30
0.0
 10
596.1940593370658
 20
-402.1397073431216
 30
0.0
  0
POLYLINE
  5
70A
330
DF
100
AcDbEntity
  8
Drawing
 62
   250
420
  1842203
370
   100
100
AcDb2dPolyline
 66
     1
 10
0.0
 20
0.0
 30
0.0
  0
VERTEX
  5
70B
330
70A
100
AcDbEntity
  8
Drawing
 62
   250
420
  1842203
370
   100
100
AcDbVertex
100
AcDb2dVertex
 10
596.1940593370658
 20
-404.1398404129278
 30
0.0
  0
VERTEX
  5
70C
330
70A
100
AcDbEntity
  8
Drawing
 62
   250
420
  1842203
370
   100
100
AcDbVertex
100
AcDb2dVertex
 10
596.1940593370658
 20
-402.1397073431216
 30
0.0
  0
SEQEND
  5
70D
330
70A
100
AcDbEntity
  8
Drawing
 62
   250
420
  1842203
370
   100
  0
POLYLINE
  5
70E
330
DF
100
AcDbEntity
  8
Drawing
 62
   250
420
  1842203
370
   100
100
AcDb2dPolyline
 66
     1
 10
0.0
 20
0.0
 30
0.0
  0
VERTEX
  5
70F
330
70E
100
AcDbEntity
  8
Drawing
 62
   250
420
  1842203
370
   100
100
AcDbVertex
100
AcDb2dVertex
 10
593.6935866423873
 20
-406.140006602454
 30
0.0
  0
VERTEX
  5
710
330
70E
100
AcDbEntity
  8
Drawing
 62
   250
420
  1842203
370
   100
100
AcDbVertex
100
AcDb2dVertex
 10
593.6935866423873
 20
-427.1398968881311
 30
0.0
  0
VERTEX
  5
711
330
70E
100
AcDbEntity
  8
Drawing
 62
   250
420
  1842203
370
   100
100
AcDbVertex
100
AcDb2dVertex
 10
438.6946834761829
 20
-427.1398968881311
 30
0.0
  0
SEQEND
  5
712
330
70E
100
AcDbEntity
  8
Drawing
 62
   250
420
  1842203
370
   100
  0
POLYLINE
  5
713
330
DF
100
AcDbEntity
  8
Drawing
 62
   250
420
  1842203
370
   100
100
AcDb2dPolyline
 66
     1
 10
0.0
 20
0.0
 30
0.0
  0
VERTEX
  5
714
330
713
100
AcDbEntity
  8
Drawing
 62
   250
420
  1842203
370
   100
100
AcDbVertex
100
AcDb2dVertex
 10
438.6946834761829
 20
-427.1398968881311
 30
0.0
  0
VERTEX
  5
715
330
713
100
AcDbEntity
  8
Drawing
 62
   250
420
  1842203
370
   100
100
AcDbVertex
100
AcDb2dVertex
 10
438.6946834761829
 20
-406.140006602454
 30
0.0
  0
SEQEND
  5
716
330
713
100
AcDbEntity
  8
Drawing
 62
   250
420
  1842203
370
   100
  0
POLYLINE
  5
717
330
DF
100
AcDbEntity
  8
Drawing
 62
   250
420
  1842203
370
   100
100
AcDb2dPolyline
 66
     1
 10
0.0
 20
0.0
 30
0.0
  0
VERTEX
  5
718
330
717
100
AcDbEntity
  8
Drawing
 62
   250
420
  1842203
370
   100
100
AcDbVertex
100
AcDb2dVertex
 10
436.1942273413647
 20
-406.1402053207824
 30
0.0
  0
VERTEX
  5
719
330
717
100
AcDbEntity
  8
Drawing
 62
   250
420
  1842203
370
   100
100
AcDbVertex
100
AcDb2dVertex
 10
436.1942273413647
 20
-404.140039131253
 30
0.0
  0
SEQEND
  5
71A
330
717
100
AcDbEntity
  8
Drawing
 62
   250
420
  1842203
370
   100
  0
POLYLINE
  5
71B
330
DF
100
AcDbEntity
  8
Drawing
 62
   250
420
  1842203
370
   100
100
AcDb2dPolyline
 66
     1
 10
0.0
 20
0.0
 30
0.0
  0
VERTEX
  5
71C
330
71B
100
AcDbEntity
  8
Drawing
 62
   250
420
  1842203
370
   100
100
AcDbVertex
100
AcDb2dVertex
 10
438.6946834761829
 20
-427.140128726176
 30
0.0
  0
VERTEX
  5
71D
330
71B
100
AcDbEntity
  8
Drawing
 62
   250
420
  1842203
370
   100
100
AcDbVertex
100
AcDb2dVertex
 10
438.4949881185233
 20
-427.140128726176
 30
0.0
  0
SEQEND
  5
71E
330
71B
100
AcDbEntity
  8
Drawing
 62
   250
420
  1842203
370
   100
  0
POLYLINE
  5
71F
330
DF
100
AcDbEntity
  8
Drawing
 62
   250
420
  1842203
370
   100
100
AcDb2dPolyline
 66
     1
 10
0.0
 20
0.0
 30
0.0
  0
VERTEX
  5
720
330
71F
100
AcDbEntity
  8
Drawing
 62
   250
420
  1842203
370
   100
100
AcDbVertex
100
AcDb2dVertex
 10
593.8943583909783
 20
-427.140128726176
 30
0.0
  0
VERTEX
  5
721
330
71F
100
AcDbEntity
  8
Drawing
 62
   250
420
  1842203
370
   100
100
AcDbVertex
100
AcDb2dVertex
 10
593.6935866423873
 20
-427.140128726176
 30
0.0
  0
SEQEND
  5
722
330
71F
100
AcDbEntity
  8
Drawing
 62
   250
420
  1842203
370
   100
  0
POLYLINE
  5
723
330
DF
100
AcDbEntity
  8
Drawing
 62
   250
420
  1842203
370
   100
100
AcDb2dPolyline
 66
     1
 10
0.0
 20
0.0
 30
0.0
  0
VERTEX
  5
724
330
723
100
AcDbEntity
  8
Drawing
 62
   250
420
  1842203
370
   100
100
AcDbVertex
100
AcDb2dVertex
 10
596.1940593370658
 20
-404.140039131253
 30
0.0
  0
VERTEX
  5
725
330
723
100
AcDbEntity
  8
Drawing
 62
   250
420
  1842203
370
   100
100
AcDbVertex
100
AcDb2dVertex
 10
596.1940593370658
 20
-406.1402053207824
 30
0.0
  0
SEQEND
  5
726
330
723
100
AcDbEntity
  8
Drawing
 62
   250
420
  1842203
370
   100
  0
ENDBLK
  5
E2
330
DF
100
AcDbEntity
  8
0
100
AcDbBlockEnd
  0
ENDSEC
  0
SECTION
  2
ENTITIES
  0
INSERT
  5
42
330
1F
100
AcDbEntity
  8
Dimension
100
AcDbBlockReference
  2
block 2
 10
0.0
 20
0.0
 30
0.0
  0
INSERT
  5
E0
330
1F
100
AcDbEntity
  8
Drawing
100
AcDbBlockReference
  2
block 18
 10
0.0
 20
0.0
 30
0.0
  0
ENDSEC
  0
SECTION
  2
OBJECTS
  0
DICTIONARY
  5
C
330
0
100
AcDbDictionary
281
     1
  3
ACAD_GROUP
350
D
  3
ACAD_LAYOUT
350
1A
  3
ACAD_MATERIAL
350
3B
  3
ACAD_MLEADERSTYLE
350
728
  3
ACAD_MLINESTYLE
350
17
  3
ACAD_PLOTSETTINGS
350
19
  3
ACAD_PLOTSTYLENAME
350
E
  3
ACAD_TABLESTYLE
350
727
  3
ACAD_VISUALSTYLE
350
2A
  0
SUN
  5
3F
330
29
100
AcDbSun
 90
        1
290
     0
 63
     7
421
 16777215
 40
1.0
291
     1
 91
  2455826
 92
 54000000
292
     0
 70
     2
 71
   256
280
     1
  0
DICTIONARY
  5
D
102
{ACAD_REACTORS
330
C
102
}
330
C
100
AcDbDictionary
281
     1
  0
DICTIONARY
  5
1A
102
{ACAD_REACTORS
330
C
102
}
330
C
100
AcDbDictionary
281
     1
  3
Layout1
350
1E
  3
Layout2
350
26
  3
Model
350
22
  0
DICTIONARY
  5
3B
102
{ACAD_REACTORS
330
C
102
}
330
C
100
AcDbDictionary
281
     1
  3
ByBlock
350
3D
  3
ByLayer
350
3C
  3
Global
350
3E
  0
DICTIONARY
  5
728
102
{ACAD_REACTORS
330
C
102
}
330
C
100
AcDbDictionary
281
     1
  0
DICTIONARY
  5
17
102
{ACAD_REACTORS
330
C
102
}
330
C
100
AcDbDictionary
281
     1
  3
Standard
350
18
  0
DICTIONARY
  5
19
102
{ACAD_REACTORS
330
C
102
}
330
C
100
AcDbDictionary
281
     1
  0
ACDBDICTIONARYWDFLT
  5
E
102
{ACAD_REACTORS
330
C
102
}
330
C
100
AcDbDictionary
281
     1
  3
Normal
350
F
100
AcDbDictionaryWithDefault
340
F
  0
DICTIONARY
  5
727
102
{ACAD_REACTORS
330
C
102
}
330
C
100
AcDbDictionary
281
     1
  0
DICTIONARY
  5
2A
102
{ACAD_REACTORS
330
C
102
}
330
C
100
AcDbDictionary
281
     1
  3
2dWireframe
350
2F
  3
3D Hidden
350
31
  3
3dWireframe
350
30
  3
Basic
350
32
  3
Brighten
350
36
  3
ColorChange
350
3A
  3
Conceptual
350
34
  3
Dim
350
35
  3
Facepattern
350
39
  3
Flat
350
2B
  3
FlatWithEdges
350
2C
  3
Gouraud
350
2D
  3
GouraudWithEdges
350
2E
  3
Linepattern
350
38
  3
Realistic
350
33
  3
Thicken
350
37
  0
LAYOUT
  5
1E
102
{ACAD_REACTORS
330
1A
102
}
330
1A
100
AcDbPlotSettings
  1

  2
none_device
  4

  6

 40
0.0
 41
0.0
 42
0.0
 43
0.0
 44
0.0
 45
0.0
 46
0.0
 47
0.0
 48
0.0
 49
0.0
140
0.0
141
0.0
142
1.0
143
1.0
 70
   688
 72
     0
 73
     0
 74
     5
  7

 75
    16
 76
     0
 77
     2
 78
   300
147
1.0
148
0.0
149
0.0
100
AcDbLayout
  1
Layout1
 70
     1
 71
     1
 10
0.0
 20
0.0
 11
12.0
 21
9.0
 12
0.0
 22
0.0
 32
0.0
 14
1.000000000000000E+20
 24
1.000000000000000E+20
 34
1.000000000000000E+20
 15
-1.000000000000000E+20
 25
-1.000000000000000E+20
 35
-1.000000000000000E+20
146
0.0
 13
0.0
 23
0.0
 33
0.0
 16
1.0
 26
0.0
 36
0.0
 17
0.0
 27
1.0
 37
0.0
 76
     0
330
1B
  0
LAYOUT
  5
26
102
{ACAD_REACTORS
330
1A
102
}
330
1A
100
AcDbPlotSettings
  1

  2
none_device
  4

  6

 40
0.0
 41
0.0
 42
0.0
 43
0.0
 44
0.0
 45
0.0
 46
0.0
 47
0.0
 48
0.0
 49
0.0
140
0.0
141
0.0
142
1.0
143
1.0
 70
   688
 72
     0
 73
     0
 74
     5
  7

 75
    16
 76
     0
 77
     2
 78
   300
147
1.0
148
0.0
149
0.0
100
AcDbLayout
  1
Layout2
 70
     1
 71
     2
 10
0.0
 20
0.0
 11
0.0
 21
0.0
 12
0.0
 22
0.0
 32
0.0
 14
0.0
 24
0.0
 34
0.0
 15
0.0
 25
0.0
 35
0.0
146
0.0
 13
0.0
 23
0.0
 33
0.0
 16
1.0
 26
0.0
 36
0.0
 17
0.0
 27
1.0
 37
0.0
 76
     0
330
23
  0
LAYOUT
  5
22
102
{ACAD_REACTORS
330
1A
102
}
330
1A
100
AcDbPlotSettings
  1

  2
none_device
  4

  6

 40
0.0
 41
0.0
 42
0.0
 43
0.0
 44
0.0
 45
0.0
 46
0.0
 47
0.0
 48
0.0
 49
0.0
140
0.0
141
0.0
142
1.0
143
1.0
 70
  1712
 72
     0
 73
     0
 74
     0
  7

 75
     0
 76
     0
 77
     2
 78
   300
147
1.0
148
0.0
149
0.0
100
AcDbLayout
  1
Model
 70
     1
 71
     0
 10
0.0
 20
0.0
 11
12.0
 21
9.0
 12
0.0
 22
0.0
 32
0.0
 14
1.000000000000000E+20
 24
1.000000000000000E+20
 34
1.000000000000000E+20
 15
-1.000000000000000E+20
 25
-1.000000000000000E+20
 35
-1.000000000000000E+20
146
0.0
 13
0.0
 23
0.0
 33
0.0
 16
1.0
 26
0.0
 36
0.0
 17
0.0
 27
1.0
 37
0.0
 76
     0
330
1F
331
29
  0
MATERIAL
  5
3D
102
{ACAD_REACTORS
330
3B
102
}
330
3B
100
AcDbMaterial
  1
ByBlock
 72
     1
 94
      127
  0
MATERIAL
  5
3C
102
{ACAD_REACTORS
330
3B
102
}
330
3B
100
AcDbMaterial
  1
ByLayer
 72
     1
 94
      127
  0
MATERIAL
  5
3E
102
{ACAD_REACTORS
330
3B
102
}
330
3B
100
AcDbMaterial
  1
Global
 72
     1
 94
      127
  0
MLINESTYLE
  5
18
102
{ACAD_REACTORS
330
17
102
}
330
17
100
AcDbMlineStyle
  2
Standard
 70
     0
  3

 62
   256
 51
90.0
 52
90.0
 71
     2
 49
0.5
 62
   256
  6
BYLAYER
 49
-0.5
 62
   256
  6
BYLAYER
  0
ACDBPLACEHOLDER
  5
F
102
{ACAD_REACTORS
330
E
102
}
330
E
  0
VISUALSTYLE
  5
2F
102
{ACAD_REACTORS
330
2A
102
}
330
2A
100
AcDbVisualStyle
  2
2dWireframe
 70
     4
177
     2
291
     0
 71
     0
176
     1
 72
     2
176
     1
 73
     0
176
     1
 90
        0
176
     1
 40
-0.6
176
     1
 41
-30.0
176
     1
 62
     5
 63
     7
421
 16777215
176
     1
 74
     1
176
     1
 91
        4
176
     1
 64
     7
176
     1
 65
   257
176
     1
 75
     1
176
     1
175
     1
176
     1
 42
1.0
176
     1
 92
        0
176
     1
 66
   257
176
     1
 43
1.0
176
     1
 76
     1
176
     1
 77
     6
176
     1
 78
     2
176
     1
 67
     7
176
     1
 79
     5
176
     1
170
     0
176
     1
171
     0
176
     1
290
     0
176
     1
 93
        1
176
     1
 44
0.0
176
     1
173
     0
176
     1
  0
VISUALSTYLE
  5
31
102
{ACAD_REACTORS
330
2A
102
}
330
2A
100
AcDbVisualStyle
  2
3D Hidden
 70
     6
177
     2
291
     0
 71
     1
176
     1
 72
     2
176
     1
 73
     2
176
     1
 90
        0
176
     1
 40
-0.6
176
     1
 41
-30.0
176
     1
 62
     5
 63
     7
421
 16777215
176
     1
 74
     2
176
     1
 91
        2
176
     1
 64
     7
176
     1
 65
   257
176
     1
 75
     2
176
     1
175
     1
176
     1
 42
40.0
176
     1
 92
        0
176
     1
 66
   257
176
     1
 43
1.0
176
     1
 76
     1
176
     1
 77
     6
176
     1
 78
     2
176
     1
 67
     7
176
     1
 79
     3
176
     1
170
     0
176
     1
171
     0
176
     1
290
     0
176
     1
 93
        1
176
     1
 44
0.0
176
     1
173
     0
176
     1
  0
VISUALSTYLE
  5
30
102
{ACAD_REACTORS
330
2A
102
}
330
2A
100
AcDbVisualStyle
  2
3dWireframe
 70
     5
177
     2
291
     0
 71
     0
176
     1
 72
     2
176
     1
 73
     0
176
     1
 90
        0
176
     1
 40
-0.6
176
     1
 41
-30.0
176
     1
 62
     5
 63
     7
421
 16777215
176
     1
 74
     1
176
     1
 91
        4
176
     1
 64
     7
176
     1
 65
   257
176
     1
 75
     1
176
     1
175
     1
176
     1
 42
1.0
176
     1
 92
        0
176
     1
 66
   257
176
     1
 43
1.0
176
     1
 76
     1
176
     1
 77
     6
176
     1
 78
     2
176
     1
 67
     7
176
     1
 79
     5
176
     1
170
     0
176
     1
171
     0
176
     1
290
     0
176
     1
 93
        1
176
     1
 44
0.0
176
     1
173
     0
176
     1
  0
VISUALSTYLE
  5
32
102
{ACAD_REACTORS
330
2A
102
}
330
2A
100
AcDbVisualStyle
  2
Basic
 70
     7
177
     2
291
     1
 71
     1
176
     1
 72
     0
176
     1
 73
     1
176
     1
 90
        0
176
     1
 40
-0.6
176
     1
 41
-30.0
176
     1
 62
     5
 63
     7
421
 16777215
176
     1
 74
     0
176
     1
 91
        4
176
     1
 64
     7
176
     1
 65
   257
176
     1
 75
     1
176
     1
175
     1
176
     1
 42
1.0
176
     1
 92
        8
176
     1
 66
     7
176
     1
 43
1.0
176
     1
 76
     1
176
     1
 77
     6
176
     1
 78
     2
176
     1
 67
     7
176
     1
 79
     5
176
     1
170
     0
176
     1
171
     0
176
     1
290
     0
176
     1
 93
        1
176
     1
 44
0.0
176
     1
173
     0
176
     1
  0
VISUALSTYLE
  5
36
102
{ACAD_REACTORS
330
2A
102
}
330
2A
100
AcDbVisualStyle
  2
Brighten
 70
    12
177
     2
291
     1
 71
     2
176
     1
 72
     2
176
     1
 73
     0
176
     1
 90
        0
176
     1
 40
-0.6
176
     1
 41
-30.0
176
     1
 62
     5
 63
     7
421
 16777215
176
     1
 74
     1
176
     1
 91
        4
176
     1
 64
     7
176
     1
 65
   257
176
     1
 75
     1
176
     1
175
     1
176
     1
 42
1.0
176
     1
 92
        8
176
     1
 66
     7
176
     1
 43
1.0
176
     1
 76
     1
176
     1
 77
     6
176
     1
 78
     2
176
     1
 67
     7
176
     1
 79
     5
176
     1
170
     0
176
     1
171
     0
176
     1
290
     0
176
     1
 93
        1
176
     1
 44
50.0
176
     1
173
     0
176
     1
  0
VISUALSTYLE
  5
3A
102
{ACAD_REACTORS
330
2A
102
}
330
2A
100
AcDbVisualStyle
  2
ColorChange
 70
    16
177
     2
291
     1
 71
     2
176
     1
 72
     2
176
     1
 73
     3
176
     1
 90
        0
176
     1
 40
-0.6
176
     1
 41
-30.0
176
     1
 62
     5
 63
     8
421
  8421504
176
     1
 74
     1
176
     1
 91
        4
176
     1
 64
     7
176
     1
 65
   257
176
     1
 75
     1
176
     1
175
     1
176
     1
 42
1.0
176
     1
 92
        8
176
     1
 66
     8
424
  8421504
176
     1
 43
1.0
176
     1
 76
     1
176
     1
 77
     6
176
     1
 78
     2
176
     1
 67
     7
176
     1
 79
     5
176
     1
170
     0
176
     1
171
     0
176
     1
290
     0
176
     1
 93
        1
176
     1
 44
0.0
176
     1
173
     0
176
     1
  0
VISUALSTYLE
  5
34
102
{ACAD_REACTORS
330
2A
102
}
330
2A
100
AcDbVisualStyle
  2
Conceptual
 70
     9
177
     2
291
     0
 71
     3
176
     1
 72
     2
176
     1
 73
     0
176
     1
 90
        0
176
     1
 40
-0.6
176
     1
 41
-30.0
176
     1
 62
     5
 63
     7
421
 16777215
176
     1
 74
     2
176
     1
 91
        2
176
     1
 64
     7
176
     1
 65
   257
176
     1
 75
     1
176
     1
175
     1
176
     1
 42
40.0
176
     1
 92
        8
176
     1
 66
     7
176
     1
 43
1.0
176
     1
 76
     1
176
     1
 77
     6
176
     1
 78
     2
176
     1
 67
     7
176
     1
 79
     3
176
     1
170
     0
176
     1
171
     0
176
     1
290
     0
176
     1
 93
        1
176
     1
 44
0.0
176
     1
173
     0
176
     1
  0
VISUALSTYLE
  5
35
102
{ACAD_REACTORS
330
2A
102
}
330
2A
100
AcDbVisualStyle
  2
Dim
 70
    11
177
     2
291
     1
 71
     2
176
     1
 72
     2
176
     1
 73
     0
176
     1
 90
        0
176
     1
 40
-0.6
176
     1
 41
-30.0
176
     1
 62
     5
 63
     7
421
 16777215
176
     1
 74
     1
176
     1
 91
        4
176
     1
 64
     7
176
     1
 65
   257
176
     1
 75
     1
176
     1
175
     1
176
     1
 42
1.0
176
     1
 92
        8
176
     1
 66
     7
176
     1
 43
1.0
176
     1
 76
     1
176
     1
 77
     6
176
     1
 78
     2
176
     1
 67
     7
176
     1
 79
     5
176
     1
170
     0
176
     1
171
     0
176
     1
290
     0
176
     1
 93
        1
176
     1
 44
-50.0
176
     1
173
     0
176
     1
  0
VISUALSTYLE
  5
39
102
{ACAD_REACTORS
330
2A
102
}
330
2A
100
AcDbVisualStyle
  2
Facepattern
 70
    15
177
     2
291
     1
 71
     2
176
     1
 72
     2
176
     1
 73
     0
176
     1
 90
        0
176
     1
 40
-0.6
176
     1
 41
-30.0
176
     1
 62
     5
 63
     7
421
 16777215
176
     1
 74
     1
176
     1
 91
        4
176
     1
 64
     7
176
     1
 65
   257
176
     1
 75
     1
176
     1
175
     1
176
     1
 42
1.0
176
     1
 92
        8
176
     1
 66
     7
176
     1
 43
1.0
176
     1
 76
     1
176
     1
 77
     6
176
     1
 78
     2
176
     1
 67
     7
176
     1
 79
     5
176
     1
170
     0
176
     1
171
     0
176
     1
290
     0
176
     1
 93
        1
176
     1
 44
0.0
176
     1
173
     0
176
     1
  0
VISUALSTYLE
  5
2B
102
{ACAD_REACTORS
330
2A
102
}
330
2A
100
AcDbVisualStyle
  2
Flat
 70
     0
177
     2
291
     1
 71
     2
176
     1
 72
     1
176
     1
 73
     1
176
     1
 90
        2
176
     1
 40
-0.6
176
     1
 41
30.0
176
     1
 62
     5
 63
     7
421
 16777215
176
     1
 74
     0
176
     1
 91
        4
176
     1
 64
     7
176
     1
 65
   257
176
     1
 75
     1
176
     1
175
     1
176
     1
 42
1.0
176
     1
 92
        8
176
     1
 66
     7
176
     1
 43
1.0
176
     1
 76
     1
176
     1
 77
     6
176
     1
 78
     2
176
     1
 67
     7
176
     1
 79
     5
176
     1
170
     0
176
     1
171
     0
176
     1
290
     0
176
     1
 93
       13
176
     1
 44
0.0
176
     1
173
     0
176
     1
  0
VISUALSTYLE
  5
2C
102
{ACAD_REACTORS
330
2A
102
}
330
2A
100
AcDbVisualStyle
  2
FlatWithEdges
 70
     1
177
     2
291
     1
 71
     2
176
     1
 72
     1
176
     1
 73
     1
176
     1
 90
        2
176
     1
 40
-0.6
176
     1
 41
30.0
176
     1
 62
     5
 63
     7
421
 16777215
176
     1
 74
     1
176
     1
 91
        4
176
     1
 64
     7
176
     1
 65
   257
176
     1
 75
     1
176
     1
175
     1
176
     1
 42
1.0
176
     1
 92
        0
176
     1
 66
   257
176
     1
 43
1.0
176
     1
 76
     1
176
     1
 77
     6
176
     1
 78
     2
176
     1
 67
     7
176
     1
 79
     5
176
     1
170
     0
176
     1
171
     0
176
     1
290
     0
176
     1
 93
       13
176
     1
 44
0.0
176
     1
173
     0
176
     1
  0
VISUALSTYLE
  5
2D
102
{ACAD_REACTORS
330
2A
102
}
330
2A
100
AcDbVisualStyle
  2
Gouraud
 70
     2
177
     2
291
     1
 71
     2
176
     1
 72
     2
176
     1
 73
     1
176
     1
 90
        2
176
     1
 40
-0.6
176
     1
 41
30.0
176
     1
 62
     5
 63
     7
421
 16777215
176
     1
 74
     0
176
     1
 91
        4
176
     1
 64
     7
176
     1
 65
   257
176
     1
 75
     1
176
     1
175
     1
176
     1
 42
1.0
176
     1
 92
        0
176
     1
 66
     7
176
     1
 43
1.0
176
     1
 76
     1
176
     1
 77
     6
176
     1
 78
     2
176
     1
 67
     7
176
     1
 79
     5
176
     1
170
     0
176
     1
171
     0
176
     1
290
     0
176
     1
 93
       13
176
     1
 44
0.0
176
     1
173
     0
176
     1
  0
VISUALSTYLE
  5
2E
102
{ACAD_REACTORS
330
2A
102
}
330
2A
100
AcDbVisualStyle
  2
GouraudWithEdges
 70
     3
177
     2
291
     1
 71
     2
176
     1
 72
     2
176
     1
 73
     1
176
     1
 90
        2
176
     1
 40
-0.6
176
     1
 41
30.0
176
     1
 62
     5
 63
     7
421
 16777215
176
     1
 74
     1
176
     1
 91
        4
176
     1
 64
     7
176
     1
 65
   257
176
     1
 75
     1
176
     1
175
     1
176
     1
 42
1.0
176
     1
 92
        0
176
     1
 66
   257
176
     1
 43
1.0
176
     1
 76
     1
176
     1
 77
     6
176
     1
 78
     2
176
     1
 67
     7
176
     1
 79
     5
176
     1
170
     0
176
     1
171
     0
176
     1
290
     0
176
     1
 93
       13
176
     1
 44
0.0
176
     1
173
     0
176
     1
  0
VISUALSTYLE
  5
38
102
{ACAD_REACTORS
330
2A
102
}
330
2A
100
AcDbVisualStyle
  2
Linepattern
 70
    14
177
     2
291
     1
 71
     2
176
     1
 72
     2
176
     1
 73
     0
176
     1
 90
        0
176
     1
 40
-0.6
176
     1
 41
-30.0
176
     1
 62
     5
 63
     7
421
 16777215
176
     1
 74
     1
176
     1
 91
        4
176
     1
 64
     7
176
     1
 65
   257
176
     1
 75
     7
176
     1
175
     7
176
     1
 42
1.0
176
     1
 92
        8
176
     1
 66
     7
176
     1
 43
1.0
176
     1
 76
     1
176
     1
 77
     6
176
     1
 78
     2
176
     1
 67
     7
176
     1
 79
     5
176
     1
170
     0
176
     1
171
     0
176
     1
290
     0
176
     1
 93
        1
176
     1
 44
0.0
176
     1
173
     0
176
     1
  0
VISUALSTYLE
  5
33
102
{ACAD_REACTORS
330
2A
102
}
330
2A
100
AcDbVisualStyle
  2
Realistic
 70
     8
177
     2
291
     0
 71
     2
176
     1
 72
     2
176
     1
 73
     0
176
     1
 90
        0
176
     1
 40
-0.6
176
     1
 41
-30.0
176
     1
 62
     5
 63
     7
421
 16777215
176
     1
 74
     1
176
     1
 91
        0
176
     1
 64
     7
176
     1
 65
   257
176
     1
 75
     1
176
     1
175
     1
176
     1
 42
1.0
176
     1
 92
        8
176
     1
 66
     8
424
  7895160
176
     1
 43
1.0
176
     1
 76
     1
176
     1
 77
     6
176
     1
 78
     2
176
     1
 67
     7
176
     1
 79
     5
176
     1
170
     0
176
     1
171
     0
176
     1
290
     0
176
     1
 93
       13
176
     1
 44
0.0
176
     1
173
     0
176
     1
  0
VISUALSTYLE
  5
37
102
{ACAD_REACTORS
330
2A
102
}
330
2A
100
AcDbVisualStyle
  2
Thicken
 70
    13
177
     2
291
     1
 71
     2
176
     1
 72
     2
176
     1
 73
     0
176
     1
 90
        0
176
     1
 40
-0.6
176
     1
 41
-30.0
176
     1
 62
     5
 63
     7
421
 16777215
176
     1
 74
     1
176
     1
 91
        4
176
     1
 64
     7
176
     1
 65
   257
176
     1
 75
     1
176
     1
175
     1
176
     1
 42
1.0
176
     1
 92
       12
176
     1
 66
     7
176
     1
 43
1.0
176
     1
 76
     1
176
     1
 77
     6
176
     1
 78
     2
176
     1
 67
     7
176
     1
 79
     5
176
     1
170
     0
176
     1
171
     0
176
     1
290
     0
176
     1
 93
        1
176
     1
 44
0.0
176
     1
173
     0
176
     1
  0
ENDSEC
  0
EOF
