  0
SECTION
  2
HEADER
  9
$ACADVER
  1
AC1024
  9
$ACADMAINTVER
 70
     6
  9
$DWGCODEPAGE
  3
ANSI_1250
  9
$INSBASE
 10
0.0
 20
0.0
 30
0.0
  9
$EXTMIN
 10
1.000000000000000E+20
 20
1.000000000000000E+20
 30
1.000000000000000E+20
  9
$EXTMAX
 10
-1.000000000000000E+20
 20
-1.000000000000000E+20
 30
-1.000000000000000E+20
  9
$LIMMIN
 10
0.0
 20
0.0
  9
$LIMMAX
 10
12.0
 20
9.0
  9
$ORTHOMODE
 70
     0
  9
$REGENMODE
 70
     1
  9
$FILLMODE
 70
     1
  9
$QTEXTMODE
 70
     0
  9
$MIRRTEXT
 70
     1
  9
$LTSCALE
 40
1.0
  9
$ATTMODE
 70
     1
  9
$TEXTSIZE
 40
0.2
  9
$TRACEWID
 40
0.05
  9
$TEXTSTYLE
  7
Standard
  9
$CLAYER
  8
0
  9
$CELTYPE
  6
ByLayer
  9
$CECOLOR
 62
   256
  9
$CELTSCALE
 40
1.0
  9
$DISPSILH
 70
     0
  9
$DIMSCALE
 40
1.0
  9
$DIMASZ
 40
0.18
  9
$DIMEXO
 40
0.0625
  9
$DIMDLI
 40
0.38
  9
$DIMRND
 40
0.0
  9
$DIMDLE
 40
0.0
  9
$DIMEXE
 40
0.18
  9
$DIMTP
 40
0.0
  9
$DIMTM
 40
0.0
  9
$DIMTXT
 40
0.18
  9
$DIMCEN
 40
0.09
  9
$DIMTSZ
 40
0.0
  9
$DIMTOL
 70
     0
  9
$DIMLIM
 70
     0
  9
$DIMTIH
 70
     1
  9
$DIMTOH
 70
     1
  9
$DIMSE1
 70
     0
  9
$DIMSE2
 70
     0
  9
$DIMTAD
 70
     0
  9
$DIMZIN
 70
     0
  9
$DIMBLK
  1

  9
$DIMASO
 70
     1
  9
$DIMSHO
 70
     1
  9
$DIMPOST
  1

  9
$DIMAPOST
  1

  9
$DIMALT
 70
     0
  9
$DIMALTD
 70
     2
  9
$DIMALTF
 40
25.4
  9
$DIMLFAC
 40
1.0
  9
$DIMTOFL
 70
     0
  9
$DIMTVP
 40
0.0
  9
$DIMTIX
 70
     0
  9
$DIMSOXD
 70
     0
  9
$DIMSAH
 70
     0
  9
$DIMBLK1
  1

  9
$DIMBLK2
  1

  9
$DIMSTYLE
  2
Standard
  9
$DIMCLRD
 70
     0
  9
$DIMCLRE
 70
     0
  9
$DIMCLRT
 70
     0
  9
$DIMTFAC
 40
1.0
  9
$DIMGAP
 40
0.09
  9
$DIMJUST
 70
     0
  9
$DIMSD1
 70
     0
  9
$DIMSD2
 70
     0
  9
$DIMTOLJ
 70
     1
  9
$DIMTZIN
 70
     0
  9
$DIMALTZ
 70
     0
  9
$DIMALTTZ
 70
     0
  9
$DIMUPT
 70
     0
  9
$DIMDEC
 70
     4
  9
$DIMTDEC
 70
     4
  9
$DIMALTU
 70
     2
  9
$DIMALTTD
 70
     2
  9
$DIMTXSTY
  7
Standard
  9
$DIMAUNIT
 70
     0
  9
$DIMADEC
 70
     0
  9
$DIMALTRND
 40
0.0
  9
$DIMAZIN
 70
     0
  9
$DIMDSEP
 70
    46
  9
$DIMATFIT
 70
     3
  9
$DIMFRAC
 70
     0
  9
$DIMLDRBLK
  1

  9
$DIMLUNIT
 70
     2
  9
$DIMLWD
 70
    -2
  9
$DIMLWE
 70
    -2
  9
$DIMTMOVE
 70
     0
  9
$DIMFXL
 40
1.0
  9
$DIMFXLON
 70
     0
  9
$DIMJOGANG
 40
0.7853981633974483
  9
$DIMTFILL
 70
     0
  9
$DIMTFILLCLR
 70
     0
  9
$DIMARCSYM
 70
     0
  9
$DIMLTYPE
  6

  9
$DIMLTEX1
  6

  9
$DIMLTEX2
  6

  9
$DIMTXTDIRECTION
 70
     0
  9
$LUNITS
 70
     2
  9
$LUPREC
 70
     4
  9
$SKETCHINC
 40
0.1
  9
$FILLETRAD
 40
0.5
  9
$AUNITS
 70
     0
  9
$AUPREC
 70
     0
  9
$MENU
  1
.
  9
$ELEVATION
 40
0.0
  9
$PELEVATION
 40
0.0
  9
$THICKNESS
 40
0.0
  9
$LIMCHECK
 70
     0
  9
$CHAMFERA
 40
0.5
  9
$CHAMFERB
 40
0.5
  9
$CHAMFERC
 40
1.0
  9
$CHAMFERD
 40
0.0
  9
$SKPOLY
 70
     0
  9
$TDCREATE
 40
2457800.686113136
  9
$TDUCREATE
 40
2457800.64444647
  9
$TDUPDATE
 40
2457800.686113287
  9
$TDUUPDATE
 40
2457800.64444662
  9
$TDINDWG
 40
0.0000000116
  9
$TDUSRTIMER
 40
0.0000000116
  9
$USRTIMER
 70
     1
  9
$ANGBASE
 50
0.0
  9
$ANGDIR
 70
     0
  9
$PDMODE
 70
     0
  9
$PDSIZE
 40
0.0
  9
$PLINEWID
 40
0.0
  9
$SPLFRAME
 70
     0
  9
$SPLINETYPE
 70
     6
  9
$SPLINESEGS
 70
     8
  9
$HANDSEED
  5
4B2
  9
$SURFTAB1
 70
     6
  9
$SURFTAB2
 70
     6
  9
$SURFTYPE
 70
     6
  9
$SURFU
 70
     6
  9
$SURFV
 70
     6
  9
$UCSBASE
  2

  9
$UCSNAME
  2

  9
$UCSORG
 10
0.0
 20
0.0
 30
0.0
  9
$UCSXDIR
 10
1.0
 20
0.0
 30
0.0
  9
$UCSYDIR
 10
0.0
 20
1.0
 30
0.0
  9
$UCSORTHOREF
  2

  9
$UCSORTHOVIEW
 70
     0
  9
$UCSORGTOP
 10
0.0
 20
0.0
 30
0.0
  9
$UCSORGBOTTOM
 10
0.0
 20
0.0
 30
0.0
  9
$UCSORGLEFT
 10
0.0
 20
0.0
 30
0.0
  9
$UCSORGRIGHT
 10
0.0
 20
0.0
 30
0.0
  9
$UCSORGFRONT
 10
0.0
 20
0.0
 30
0.0
  9
$UCSORGBACK
 10
0.0
 20
0.0
 30
0.0
  9
$PUCSBASE
  2

  9
$PUCSNAME
  2

  9
$PUCSORG
 10
0.0
 20
0.0
 30
0.0
  9
$PUCSXDIR
 10
1.0
 20
0.0
 30
0.0
  9
$PUCSYDIR
 10
0.0
 20
1.0
 30
0.0
  9
$PUCSORTHOREF
  2

  9
$PUCSORTHOVIEW
 70
     0
  9
$PUCSORGTOP
 10
0.0
 20
0.0
 30
0.0
  9
$PUCSORGBOTTOM
 10
0.0
 20
0.0
 30
0.0
  9
$PUCSORGLEFT
 10
0.0
 20
0.0
 30
0.0
  9
$PUCSORGRIGHT
 10
0.0
 20
0.0
 30
0.0
  9
$PUCSORGFRONT
 10
0.0
 20
0.0
 30
0.0
  9
$PUCSORGBACK
 10
0.0
 20
0.0
 30
0.0
  9
$USERI1
 70
     0
  9
$USERI2
 70
     0
  9
$USERI3
 70
     0
  9
$USERI4
 70
     0
  9
$USERI5
 70
     0
  9
$USERR1
 40
0.0
  9
$USERR2
 40
0.0
  9
$USERR3
 40
0.0
  9
$USERR4
 40
0.0
  9
$USERR5
 40
0.0
  9
$WORLDVIEW
 70
     1
  9
$SHADEDGE
 70
     3
  9
$SHADEDIF
 70
    70
  9
$TILEMODE
 70
     1
  9
$MAXACTVP
 70
    64
  9
$PINSBASE
 10
0.0
 20
0.0
 30
0.0
  9
$PLIMCHECK
 70
     0
  9
$PEXTMIN
 10
1.000000000000000E+20
 20
1.000000000000000E+20
 30
1.000000000000000E+20
  9
$PEXTMAX
 10
-1.000000000000000E+20
 20
-1.000000000000000E+20
 30
-1.000000000000000E+20
  9
$PLIMMIN
 10
0.0
 20
0.0
  9
$PLIMMAX
 10
12.0
 20
9.0
  9
$UNITMODE
 70
     0
  9
$VISRETAIN
 70
     1
  9
$PLINEGEN
 70
     0
  9
$PSLTSCALE
 70
     1
  9
$TREEDEPTH
 70
  3020
  9
$CMLSTYLE
  2
Standard
  9
$CMLJUST
 70
     0
  9
$CMLSCALE
 40
1.0
  9
$PROXYGRAPHICS
 70
     1
  9
$MEASUREMENT
 70
     0
  9
$CELWEIGHT
370
    -1
  9
$ENDCAPS
280
     0
  9
$JOINSTYLE
280
     0
  9
$LWDISPLAY
290
     1
  9
$INSUNITS
 70
     1
  9
$HYPERLINKBASE
  1

  9
$STYLESHEET
  1

  9
$XEDIT
290
     1
  9
$CEPSNTYPE
380
     0
  9
$PSTYLEMODE
290
     1
  9
$FINGERPRINTGUID
  2
{B6EE893B-AF50-47DC-A89B-76C45CCCDA3C}
  9
$VERSIONGUID
  2
{FAEB1C32-E019-11D5-929B-00C0DF256EC4}
  9
$EXTNAMES
290
     1
  9
$PSVPSCALE
 40
0.0
  9
$OLESTARTUP
290
     0
  9
$SORTENTS
280
   127
  9
$INDEXCTL
280
     0
  9
$HIDETEXT
280
     1
  9
$XCLIPFRAME
280
     2
  9
$HALOGAP
280
     0
  9
$OBSCOLOR
 70
   257
  9
$OBSLTYPE
280
     0
  9
$INTERSECTIONDISPLAY
280
     0
  9
$INTERSECTIONCOLOR
 70
   257
  9
$DIMASSOC
280
     2
  9
$PROJECTNAME
  1

  9
$CAMERADISPLAY
290
     0
  9
$LENSLENGTH
 40
50.0
  9
$CAMERAHEIGHT
 40
0.0
  9
$STEPSPERSEC
 40
2.0
  9
$STEPSIZE
 40
6.0
  9
$3DDWFPREC
 40
2.0
  9
$PSOLWIDTH
 40
0.25
  9
$PSOLHEIGHT
 40
4.0
  9
$LOFTANG1
 40
1.570796326794897
  9
$LOFTANG2
 40
1.570796326794897
  9
$LOFTMAG1
 40
0.0
  9
$LOFTMAG2
 40
0.0
  9
$LOFTPARAM
 70
     7
  9
$LOFTNORMALS
280
     1
  9
$LATITUDE
 40
37.795
  9
$LONGITUDE
 40
-122.394
  9
$NORTHDIRECTION
 40
0.0
  9
$TIMEZONE
 70
 -8000
  9
$LIGHTGLYPHDISPLAY
280
     1
  9
$TILEMODELIGHTSYNCH
280
     1
  9
$CMATERIAL
347
3C
  9
$SOLIDHIST
280
     1
  9
$SHOWHIST
280
     1
  9
$DWFFRAME
280
     2
  9
$DGNFRAME
280
     2
  9
$REALWORLDSCALE
290
     1
  9
$INTERFERECOLOR
 62
   256
  9
$CSHADOW
280
     0
  9
$SHADOWPLANELOCATION
 40
0.0
  0
ENDSEC
  0
SECTION
  2
CLASSES
  0
CLASS
  1
ACDBDICTIONARYWDFLT
  2
AcDbDictionaryWithDefault
  3
ObjectDBX Classes
 90
        0
 91
        4
280
     0
281
     0
  0
CLASS
  1
VISUALSTYLE
  2
AcDbVisualStyle
  3
ObjectDBX Classes
 90
     4095
 91
        4
280
     0
281
     0
  0
CLASS
  1
MATERIAL
  2
AcDbMaterial
  3
ObjectDBX Classes
 90
     1153
 91
        4
280
     0
281
     0
  0
CLASS
  1
SUN
  2
AcDbSun
  3
SCENEOE
 90
     1024
 91
        4
280
     0
281
     0
  0
ENDSEC
  0
SECTION
  2
TABLES
  0
TABLE
  2
VPORT
  5
8
330
0
100
AcDbSymbolTable
 70
     1
  0
VPORT
  5
29
330
8
100
AcDbSymbolTableRecord
100
AcDbViewportTableRecord
  2
*Active
 70
     0
 10
0.0
 20
0.0
 11
1.0
 21
1.0
 12
0.0
 22
0.0
 13
0.0
 23
0.0
 14
0.5
 24
0.5
 15
0.5
 25
0.5
 16
0.0
 26
0.0
 36
1.0
 17
500.0007637638886
 27
-500.0007637638886
 37
0.0
 40
500.0007637638884
 41
0.9999984722245567
 42
50.0
 43
0.0
 44
0.0
 50
0.0
 51
0.0
 71
     0
 72
   100
 73
     1
 74
     3
 75
     0
 76
     0
 77
     0
 78
     0
281
     0
 65
     1
110
0.0
120
0.0
130
0.0
111
1.0
121
0.0
131
0.0
112
0.0
122
1.0
132
0.0
 79
     0
146
0.0
 60
     3
 61
     5
292
     1
282
     1
141
0.0
142
0.0
 63
   250
361
3F
  0
ENDTAB
  0
TABLE
  2
LTYPE
  5
5
330
0
100
AcDbSymbolTable
 70
     1
  0
LTYPE
  5
14
330
5
100
AcDbSymbolTableRecord
100
AcDbLinetypeTableRecord
  2
ByBlock
 70
     0
  3

 72
    65
 73
     0
 40
0.0
  0
LTYPE
  5
15
330
5
100
AcDbSymbolTableRecord
100
AcDbLinetypeTableRecord
  2
ByLayer
 70
     0
  3

 72
    65
 73
     0
 40
0.0
  0
LTYPE
  5
16
330
5
100
AcDbSymbolTableRecord
100
AcDbLinetypeTableRecord
  2
Continuous
 70
     0
  3
Solid line
 72
    65
 73
     0
 40
0.0
  0
ENDTAB
  0
TABLE
  2
LAYER
  5
2
330
0
100
AcDbSymbolTable
 70
     3
  0
LAYER
  5
10
330
2
100
AcDbSymbolTableRecord
100
AcDbLayerTableRecord
  2
0
 70
     0
 62
     7
  6
Continuous
370
    -3
390
F
347
3E
  0
LAYER
  5
40
330
2
100
AcDbSymbolTableRecord
100
AcDbLayerTableRecord
  2
Dimension
 70
     0
 62
     7
  6
Continuous
370
    -3
390
F
347
3E
  0
LAYER
  5
41
330
2
100
AcDbSymbolTableRecord
100
AcDbLayerTableRecord
  2
Drawing
 70
     0
 62
     7
  6
Continuous
370
    -3
390
F
347
3E
  0
ENDTAB
  0
TABLE
  2
STYLE
  5
3
330
0
100
AcDbSymbolTable
 70
     1
  0
STYLE
  5
11
330
3
100
AcDbSymbolTableRecord
100
AcDbTextStyleTableRecord
  2
Standard
 70
     0
 40
0.0
 41
1.0
 50
0.0
 71
     0
 42
0.2
  3
txt
  4

  0
ENDTAB
  0
TABLE
  2
VIEW
  5
6
330
0
100
AcDbSymbolTable
 70
     0
  0
ENDTAB
  0
TABLE
  2
UCS
  5
7
330
0
100
AcDbSymbolTable
 70
     0
  0
ENDTAB
  0
TABLE
  2
APPID
  5
9
330
0
100
AcDbSymbolTable
 70
     1
  0
APPID
  5
12
330
9
100
AcDbSymbolTableRecord
100
AcDbRegAppTableRecord
  2
ACAD
 70
     0
  0
ENDTAB
  0
TABLE
  2
DIMSTYLE
  5
A
330
0
100
AcDbSymbolTable
 70
     1
100
AcDbDimStyleTable
  0
DIMSTYLE
105
27
330
A
100
AcDbSymbolTableRecord
100
AcDbDimStyleTableRecord
  2
Standard
 70
     0
178
     0
340
11
  0
ENDTAB
  0
TABLE
  2
BLOCK_RECORD
  5
1
330
0
100
AcDbSymbolTable
 70
    30
  0
BLOCK_RECORD
  5
1F
330
1
100
AcDbSymbolTableRecord
100
AcDbBlockTableRecord
  2
*Model_Space
340
22
 70
     0
280
     1
281
     0
  0
BLOCK_RECORD
  5
1B
330
1
100
AcDbSymbolTableRecord
100
AcDbBlockTableRecord
  2
*Paper_Space
340
1E
 70
     0
280
     1
281
     0
  0
BLOCK_RECORD
  5
23
330
1
100
AcDbSymbolTableRecord
100
AcDbBlockTableRecord
  2
*Paper_Space0
340
26
 70
     0
280
     1
281
     0
  0
BLOCK_RECORD
  5
42
330
1
100
AcDbSymbolTableRecord
100
AcDbBlockTableRecord
  2
block 2
340
0
102
{BLKREFS
331
43
102
}
 70
     0
280
     1
281
     0
  0
BLOCK_RECORD
  5
46
330
1
100
AcDbSymbolTableRecord
100
AcDbBlockTableRecord
  2
block 3
340
0
102
{BLKREFS
331
47
102
}
 70
     0
280
     1
281
     0
  0
BLOCK_RECORD
  5
4A
330
1
100
AcDbSymbolTableRecord
100
AcDbBlockTableRecord
  2
block 4
340
0
102
{BLKREFS
331
4B
102
}
 70
     0
280
     1
281
     0
  0
BLOCK_RECORD
  5
4E
330
1
100
AcDbSymbolTableRecord
100
AcDbBlockTableRecord
  2
block 5
340
0
102
{BLKREFS
331
4F
102
}
 70
     0
280
     1
281
     0
  0
BLOCK_RECORD
  5
53
330
1
100
AcDbSymbolTableRecord
100
AcDbBlockTableRecord
  2
block 6
340
0
102
{BLKREFS
331
54
102
}
 70
     0
280
     1
281
     0
  0
BLOCK_RECORD
  5
5F
330
1
100
AcDbSymbolTableRecord
100
AcDbBlockTableRecord
  2
block 7
340
0
102
{BLKREFS
331
60
102
}
 70
     0
280
     1
281
     0
  0
BLOCK_RECORD
  5
67
330
1
100
AcDbSymbolTableRecord
100
AcDbBlockTableRecord
  2
block 8
340
0
102
{BLKREFS
331
68
102
}
 70
     0
280
     1
281
     0
  0
BLOCK_RECORD
  5
7D
330
1
100
AcDbSymbolTableRecord
100
AcDbBlockTableRecord
  2
block 9
340
0
102
{BLKREFS
331
7E
102
}
 70
     0
280
     1
281
     0
  0
BLOCK_RECORD
  5
81
330
1
100
AcDbSymbolTableRecord
100
AcDbBlockTableRecord
  2
block 10
340
0
102
{BLKREFS
331
82
102
}
 70
     0
280
     1
281
     0
  0
BLOCK_RECORD
  5
86
330
1
100
AcDbSymbolTableRecord
100
AcDbBlockTableRecord
  2
block 11
340
0
102
{BLKREFS
331
87
102
}
 70
     0
280
     1
281
     0
  0
BLOCK_RECORD
  5
92
330
1
100
AcDbSymbolTableRecord
100
AcDbBlockTableRecord
  2
block 12
340
0
102
{BLKREFS
331
93
102
}
 70
     0
280
     1
281
     0
  0
BLOCK_RECORD
  5
9A
330
1
100
AcDbSymbolTableRecord
100
AcDbBlockTableRecord
  2
block 13
340
0
102
{BLKREFS
331
9B
102
}
 70
     0
280
     1
281
     0
  0
BLOCK_RECORD
  5
B0
330
1
100
AcDbSymbolTableRecord
100
AcDbBlockTableRecord
  2
block 14
340
0
102
{BLKREFS
331
B1
102
}
 70
     0
280
     1
281
     0
  0
BLOCK_RECORD
  5
B4
330
1
100
AcDbSymbolTableRecord
100
AcDbBlockTableRecord
  2
block 15
340
0
102
{BLKREFS
331
B5
102
}
 70
     0
280
     1
281
     0
  0
BLOCK_RECORD
  5
B9
330
1
100
AcDbSymbolTableRecord
100
AcDbBlockTableRecord
  2
block 16
340
0
102
{BLKREFS
331
BA
102
}
 70
     0
280
     1
281
     0
  0
BLOCK_RECORD
  5
C5
330
1
100
AcDbSymbolTableRecord
100
AcDbBlockTableRecord
  2
block 17
340
0
102
{BLKREFS
331
C6
102
}
 70
     0
280
     1
281
     0
  0
BLOCK_RECORD
  5
CD
330
1
100
AcDbSymbolTableRecord
100
AcDbBlockTableRecord
  2
block 18
340
0
102
{BLKREFS
331
CE
102
}
 70
     0
280
     1
281
     0
  0
BLOCK_RECORD
  5
E3
330
1
100
AcDbSymbolTableRecord
100
AcDbBlockTableRecord
  2
block 19
340
0
102
{BLKREFS
331
E4
102
}
 70
     0
280
     1
281
     0
  0
BLOCK_RECORD
  5
E7
330
1
100
AcDbSymbolTableRecord
100
AcDbBlockTableRecord
  2
block 20
340
0
102
{BLKREFS
331
E8
102
}
 70
     0
280
     1
281
     0
  0
BLOCK_RECORD
  5
F7
330
1
100
AcDbSymbolTableRecord
100
AcDbBlockTableRecord
  2
block 21
340
0
102
{BLKREFS
331
F8
102
}
 70
     0
280
     1
281
     0
  0
BLOCK_RECORD
  5
FB
330
1
100
AcDbSymbolTableRecord
100
AcDbBlockTableRecord
  2
block 22
340
0
102
{BLKREFS
331
FC
102
}
 70
     0
280
     1
281
     0
  0
BLOCK_RECORD
  5
100
330
1
100
AcDbSymbolTableRecord
100
AcDbBlockTableRecord
  2
block 23
340
0
102
{BLKREFS
331
101
102
}
 70
     0
280
     1
281
     0
  0
BLOCK_RECORD
  5
10C
330
1
100
AcDbSymbolTableRecord
100
AcDbBlockTableRecord
  2
block 24
340
0
102
{BLKREFS
331
10D
102
}
 70
     0
280
     1
281
     0
  0
BLOCK_RECORD
  5
114
330
1
100
AcDbSymbolTableRecord
100
AcDbBlockTableRecord
  2
block 25
340
0
102
{BLKREFS
331
115
102
}
 70
     0
280
     1
281
     0
  0
BLOCK_RECORD
  5
12A
330
1
100
AcDbSymbolTableRecord
100
AcDbBlockTableRecord
  2
block 26
340
0
102
{BLKREFS
331
12B
102
}
 70
     0
280
     1
281
     0
  0
BLOCK_RECORD
  5
12E
330
1
100
AcDbSymbolTableRecord
100
AcDbBlockTableRecord
  2
block 27
340
0
102
{BLKREFS
331
12F
102
}
 70
     0
280
     1
281
     0
  0
BLOCK_RECORD
  5
13B
330
1
100
AcDbSymbolTableRecord
100
AcDbBlockTableRecord
  2
block 28
340
0
102
{BLKREFS
331
13C
102
}
 70
     0
280
     1
281
     0
  0
BLOCK_RECORD
  5
143
330
1
100
AcDbSymbolTableRecord
100
AcDbBlockTableRecord
  2
block 29
340
0
102
{BLKREFS
331
144
102
}
 70
     0
280
     1
281
     0
  0
BLOCK_RECORD
  5
159
330
1
100
AcDbSymbolTableRecord
100
AcDbBlockTableRecord
  2
block 30
340
0
102
{BLKREFS
331
15A
102
}
 70
     0
280
     1
281
     0
  0
ENDTAB
  0
ENDSEC
  0
SECTION
  2
BLOCKS
  0
BLOCK
  5
20
330
1F
100
AcDbEntity
  8
0
100
AcDbBlockBegin
  2
*Model_Space
 70
     0
 10
0.0
 20
0.0
 30
0.0
  3
*Model_Space
  1

  0
ENDBLK
  5
21
330
1F
100
AcDbEntity
  8
0
100
AcDbBlockEnd
  0
BLOCK
  5
1C
330
1B
100
AcDbEntity
 67
     1
  8
0
100
AcDbBlockBegin
  2
*Paper_Space
 70
     0
 10
0.0
 20
0.0
 30
0.0
  3
*Paper_Space
  1

  0
ENDBLK
  5
1D
330
1B
100
AcDbEntity
 67
     1
  8
0
100
AcDbBlockEnd
  0
BLOCK
  5
24
330
23
100
AcDbEntity
  8
0
100
AcDbBlockBegin
  2
*Paper_Space0
 70
     0
 10
0.0
 20
0.0
 30
0.0
  3
*Paper_Space0
  1

  0
ENDBLK
  5
25
330
23
100
AcDbEntity
  8
0
100
AcDbBlockEnd
  0
BLOCK
  5
44
330
42
100
AcDbEntity
  8
0
100
AcDbBlockBegin
  2
block 2
 70
     0
 10
0.0
 20
0.0
 30
0.0
  3
block 2
  1

  0
INSERT
  5
47
330
42
100
AcDbEntity
  8
Drawing
100
AcDbBlockReference
  2
block 3
 10
0.0
 20
0.0
 30
0.0
  0
INSERT
  5
E4
330
42
100
AcDbEntity
  8
Drawing
100
AcDbBlockReference
  2
block 19
 10
0.0
 20
0.0
 30
0.0
  0
INSERT
  5
F8
330
42
100
AcDbEntity
  8
Drawing
100
AcDbBlockReference
  2
block 21
 10
0.0
 20
0.0
 30
0.0
  0
INSERT
  5
12B
330
42
100
AcDbEntity
  8
Drawing
100
AcDbBlockReference
  2
block 26
 10
0.0
 20
0.0
 30
0.0
  0
ENDBLK
  5
45
330
42
100
AcDbEntity
  8
0
100
AcDbBlockEnd
  0
BLOCK
  5
48
330
46
100
AcDbEntity
  8
0
100
AcDbBlockBegin
  2
block 3
 70
     0
 10
0.0
 20
0.0
 30
0.0
  3
block 3
  1

  0
INSERT
  5
4B
330
46
100
AcDbEntity
  8
Drawing
100
AcDbBlockReference
  2
block 4
 10
0.0
 20
0.0
 30
0.0
  0
INSERT
  5
7E
330
46
100
AcDbEntity
  8
Drawing
100
AcDbBlockReference
  2
block 9
 10
0.0
 20
0.0
 30
0.0
  0
INSERT
  5
B1
330
46
100
AcDbEntity
  8
Drawing
100
AcDbBlockReference
  2
block 14
 10
0.0
 20
0.0
 30
0.0
  0
ENDBLK
  5
49
330
46
100
AcDbEntity
  8
0
100
AcDbBlockEnd
  0
BLOCK
  5
4C
330
4A
100
AcDbEntity
  8
0
100
AcDbBlockBegin
  2
block 4
 70
     0
 10
0.0
 20
0.0
 30
0.0
  3
block 4
  1

  0
INSERT
  5
4F
330
4A
100
AcDbEntity
  8
Drawing
100
AcDbBlockReference
  2
block 5
 10
0.0
 20
0.0
 30
0.0
  0
INSERT
  5
54
330
4A
100
AcDbEntity
  8
Drawing
100
AcDbBlockReference
  2
block 6
 10
0.0
 20
0.0
 30
0.0
  0
ENDBLK
  5
4D
330
4A
100
AcDbEntity
  8
0
100
AcDbBlockEnd
  0
BLOCK
  5
50
330
4E
100
AcDbEntity
  8
0
100
AcDbBlockBegin
  2
block 5
 70
     0
 10
0.0
 20
0.0
 30
0.0
  3
block 5
  1

  0
MTEXT
  5
52
330
4E
100
AcDbEntity
  8
Drawing
 62
   250
420
  1842203
100
AcDbMText
 10
399.1683138379249
 20
-551.7047826447345
 30
0.0
 40
8.629581058252151
 41
0.0
 46
0.0
 71
     7
 72
     1
  1
\fArial|b0|i0|c0|p34;\W1;168
 11
6.123233995736766E-17
 21
1.0
 31
0.0
 73
     1
 44
1.0
  0
ENDBLK
  5
51
330
4E
100
AcDbEntity
  8
0
100
AcDbBlockEnd
  0
BLOCK
  5
55
330
53
100
AcDbEntity
  8
0
100
AcDbBlockBegin
  2
block 6
 70
     0
 10
0.0
 20
0.0
 30
0.0
  3
block 6
  1

  0
POLYLINE
  5
57
330
53
100
AcDbEntity
  8
Drawing
 62
   250
420
  1842203
370
    40
100
AcDb2dPolyline
 66
     1
 10
0.0
 20
0.0
 30
0.0
  0
VERTEX
  5
58
330
57
100
AcDbEntity
  8
Drawing
 62
   250
420
  1842203
370
    40
100
AcDbVertex
100
AcDb2dVertex
 10
424.2676149058739
 20
-457.5730940805003
 30
0.0
  0
VERTEX
  5
59
330
57
100
AcDbEntity
  8
Drawing
 62
   250
420
  1842203
370
    40
100
AcDbVertex
100
AcDb2dVertex
 10
403.1800741852583
 20
-457.5730940805003
 30
0.0
  0
SEQEND
  5
5A
330
57
100
AcDbEntity
  8
Drawing
 62
   250
420
  1842203
370
    40
  0
POLYLINE
  5
5B
330
53
100
AcDbEntity
  8
Drawing
 62
   250
420
  1842203
370
    40
100
AcDb2dPolyline
 66
     1
 10
0.0
 20
0.0
 30
0.0
  0
VERTEX
  5
5C
330
5B
100
AcDbEntity
  8
Drawing
 62
   250
420
  1842203
370
    40
100
AcDbVertex
100
AcDb2dVertex
 10
424.2676149058739
 20
-625.4210835201678
 30
0.0
  0
VERTEX
  5
5D
330
5B
100
AcDbEntity
  8
Drawing
 62
   250
420
  1842203
370
    40
100
AcDbVertex
100
AcDb2dVertex
 10
403.1809448048274
 20
-625.4210835201678
 30
0.0
  0
SEQEND
  5
5E
330
5B
100
AcDbEntity
  8
Drawing
 62
   250
420
  1842203
370
    40
  0
INSERT
  5
60
330
53
100
AcDbEntity
  8
Drawing
100
AcDbBlockReference
  2
block 7
 10
0.0
 20
0.0
 30
0.0
  0
INSERT
  5
68
330
53
100
AcDbEntity
  8
Drawing
100
AcDbBlockReference
  2
block 8
 10
0.0
 20
0.0
 30
0.0
  0
POLYLINE
  5
6F
330
53
100
AcDbEntity
  8
Drawing
370
     0
100
AcDb2dPolyline
 66
     1
 10
0.0
 20
0.0
 30
0.0
  0
VERTEX
  5
70
330
6F
100
AcDbEntity
  8
Drawing
370
     0
100
AcDbVertex
100
AcDb2dVertex
 10
403.1800741852583
 20
-467.8275993344006
 30
0.0
  0
VERTEX
  5
71
330
6F
100
AcDbEntity
  8
Drawing
370
     0
100
AcDbVertex
100
AcDb2dVertex
 10
405.6489771545638
 20
-467.8275993344006
 30
0.0
  0
VERTEX
  5
72
330
6F
100
AcDbEntity
  8
Drawing
370
     0
100
AcDbVertex
100
AcDb2dVertex
 10
404.4146127318668
 20
-457.5730940805003
 30
0.0
  0
VERTEX
  5
73
330
6F
100
AcDbEntity
  8
Drawing
370
     0
100
AcDbVertex
100
AcDb2dVertex
 10
403.1800741852583
 20
-467.8275993344006
 30
0.0
  0
SEQEND
  5
75
330
6F
100
AcDbEntity
  8
Drawing
370
     0
  0
HATCH
  5
74
330
53
100
AcDbEntity
  8
Drawing
 62
   250
420
  1842203
100
AcDbHatch
 10
0.0
 20
0.0
 30
0.0
210
0.0
220
0.0
230
1.0
  2
SOLID
 70
     1
 71
     0
 91
        1
 92
        1
 93
        3
 72
     1
 10
403.1800741852583
 20
-467.8275993344006
 11
405.6489771545638
 21
-467.8275993344006
 72
     1
 10
405.6489771545638
 20
-467.8275993344006
 11
404.4146127318668
 21
-457.5730940805003
 72
     1
 10
404.4146127318668
 20
-457.5730940805003
 11
403.1800741852583
 21
-467.8275993344006
 97
        0
 75
     2
 76
     1
 98
        0
  0
POLYLINE
  5
76
330
53
100
AcDbEntity
  8
Drawing
370
     0
100
AcDb2dPolyline
 66
     1
 10
0.0
 20
0.0
 30
0.0
  0
VERTEX
  5
77
330
76
100
AcDbEntity
  8
Drawing
370
     0
100
AcDbVertex
100
AcDb2dVertex
 10
405.6498477741322
 20
-615.1676230097223
 30
0.0
  0
VERTEX
  5
78
330
76
100
AcDbEntity
  8
Drawing
370
     0
100
AcDbVertex
100
AcDb2dVertex
 10
403.1809448048274
 20
-615.1676230097223
 30
0.0
  0
VERTEX
  5
79
330
76
100
AcDbEntity
  8
Drawing
370
     0
100
AcDbVertex
100
AcDb2dVertex
 10
404.4153092275174
 20
-625.4210835201678
 30
0.0
  0
VERTEX
  5
7A
330
76
100
AcDbEntity
  8
Drawing
370
     0
100
AcDbVertex
100
AcDb2dVertex
 10
405.6498477741322
 20
-615.1676230097223
 30
0.0
  0
SEQEND
  5
7C
330
76
100
AcDbEntity
  8
Drawing
370
     0
  0
HATCH
  5
7B
330
53
100
AcDbEntity
  8
Drawing
 62
   250
420
  1842203
100
AcDbHatch
 10
0.0
 20
0.0
 30
0.0
210
0.0
220
0.0
230
1.0
  2
SOLID
 70
     1
 71
     0
 91
        1
 92
        1
 93
        3
 72
     1
 10
405.6498477741322
 20
-615.1676230097223
 11
403.1809448048274
 21
-615.1676230097223
 72
     1
 10
403.1809448048274
 20
-615.1676230097223
 11
404.4153092275174
 21
-625.4210835201678
 72
     1
 10
404.4153092275174
 20
-625.4210835201678
 11
405.6498477741322
 21
-615.1676230097223
 97
        0
 75
     2
 76
     1
 98
        0
  0
ENDBLK
  5
56
330
53
100
AcDbEntity
  8
0
100
AcDbBlockEnd
  0
BLOCK
  5
61
330
5F
100
AcDbEntity
  8
0
100
AcDbBlockBegin
  2
block 7
 70
     0
 10
0.0
 20
0.0
 30
0.0
  3
block 7
  1

  0
POLYLINE
  5
63
330
5F
100
AcDbEntity
  8
Drawing
 62
   250
420
  1842203
370
    40
100
AcDb2dPolyline
 66
     1
 10
0.0
 20
0.0
 30
0.0
  0
VERTEX
  5
64
330
63
100
AcDbEntity
  8
Drawing
 62
   250
420
  1842203
370
    40
100
AcDbVertex
100
AcDb2dVertex
 10
404.4146127318668
 20
-460.5701148036904
 30
0.0
  0
VERTEX
  5
65
330
63
100
AcDbEntity
  8
Drawing
 62
   250
420
  1842203
370
    40
100
AcDbVertex
100
AcDb2dVertex
 10
404.4146127318668
 20
-622.4216250622507
 30
0.0
  0
SEQEND
  5
66
330
63
100
AcDbEntity
  8
Drawing
 62
   250
420
  1842203
370
    40
  0
ENDBLK
  5
62
330
5F
100
AcDbEntity
  8
0
100
AcDbBlockEnd
  0
BLOCK
  5
69
330
67
100
AcDbEntity
  8
0
100
AcDbBlockBegin
  2
block 8
 70
     0
 10
0.0
 20
0.0
 30
0.0
  3
block 8
  1

  0
POLYLINE
  5
6B
330
67
100
AcDbEntity
  8
Drawing
 62
   250
420
  1842203
370
    40
100
AcDb2dPolyline
 66
     1
 10
0.0
 20
0.0
 30
0.0
  0
VERTEX
  5
6C
330
6B
100
AcDbEntity
  8
Drawing
 62
   250
420
  1842203
370
    40
100
AcDbVertex
100
AcDb2dVertex
 10
404.4146127318668
 20
-625.4210835201678
 30
0.0
  0
VERTEX
  5
6D
330
6B
100
AcDbEntity
  8
Drawing
 62
   250
420
  1842203
370
    40
100
AcDbVertex
100
AcDb2dVertex
 10
404.4146127318668
 20
-625.4210835201678
 30
0.0
  0
SEQEND
  5
6E
330
6B
100
AcDbEntity
  8
Drawing
 62
   250
420
  1842203
370
    40
  0
ENDBLK
  5
6A
330
67
100
AcDbEntity
  8
0
100
AcDbBlockEnd
  0
BLOCK
  5
7F
330
7D
100
AcDbEntity
  8
0
100
AcDbBlockBegin
  2
block 9
 70
     0
 10
0.0
 20
0.0
 30
0.0
  3
block 9
  1

  0
INSERT
  5
82
330
7D
100
AcDbEntity
  8
Drawing
100
AcDbBlockReference
  2
block 10
 10
0.0
 20
0.0
 30
0.0
  0
INSERT
  5
87
330
7D
100
AcDbEntity
  8
Drawing
100
AcDbBlockReference
  2
block 11
 10
0.0
 20
0.0
 30
0.0
  0
ENDBLK
  5
80
330
7D
100
AcDbEntity
  8
0
100
AcDbBlockEnd
  0
BLOCK
  5
83
330
81
100
AcDbEntity
  8
0
100
AcDbBlockBegin
  2
block 10
 70
     0
 10
0.0
 20
0.0
 30
0.0
  3
block 10
  1

  0
MTEXT
  5
85
330
81
100
AcDbEntity
  8
Drawing
 62
   250
420
  1842203
100
AcDbMText
 10
494.8459793549127
 20
-385.0402356350768
 30
0.0
 40
8.629581058252151
 41
0.0
 46
0.0
 71
     7
 72
     1
  1
\fArial|b0|i0|c0|p34;\W1;168
 73
     1
 44
1.0
  0
ENDBLK
  5
84
330
81
100
AcDbEntity
  8
0
100
AcDbBlockEnd
  0
BLOCK
  5
88
330
86
100
AcDbEntity
  8
0
100
AcDbBlockBegin
  2
block 11
 70
     0
 10
0.0
 20
0.0
 30
0.0
  3
block 11
  1

  0
POLYLINE
  5
8A
330
86
100
AcDbEntity
  8
Drawing
 62
   250
420
  1842203
370
    40
100
AcDb2dPolyline
 66
     1
 10
0.0
 20
0.0
 30
0.0
  0
VERTEX
  5
8B
330
8A
100
AcDbEntity
  8
Drawing
 62
   250
420
  1842203
370
    40
100
AcDbVertex
100
AcDb2dVertex
 10
588.9775725681554
 20
-400.2616993090119
 30
0.0
  0
VERTEX
  5
8C
330
8A
100
AcDbEntity
  8
Drawing
 62
   250
420
  1842203
370
    40
100
AcDbVertex
100
AcDb2dVertex
 10
588.9775725681554
 20
-389.0525585856709
 30
0.0
  0
SEQEND
  5
8D
330
8A
100
AcDbEntity
  8
Drawing
 62
   250
420
  1842203
370
    40
  0
POLYLINE
  5
8E
330
86
100
AcDbEntity
  8
Drawing
 62
   250
420
  1842203
370
    40
100
AcDb2dPolyline
 66
     1
 10
0.0
 20
0.0
 30
0.0
  0
VERTEX
  5
8F
330
8E
100
AcDbEntity
  8
Drawing
 62
   250
420
  1842203
370
    40
100
AcDbVertex
100
AcDb2dVertex
 10
421.1295831284879
 20
-400.2616993090119
 30
0.0
  0
VERTEX
  5
90
330
8E
100
AcDbEntity
  8
Drawing
 62
   250
420
  1842203
370
    40
100
AcDbVertex
100
AcDb2dVertex
 10
421.1295831284879
 20
-389.0534292052393
 30
0.0
  0
SEQEND
  5
91
330
8E
100
AcDbEntity
  8
Drawing
 62
   250
420
  1842203
370
    40
  0
INSERT
  5
93
330
86
100
AcDbEntity
  8
Drawing
100
AcDbBlockReference
  2
block 12
 10
0.0
 20
0.0
 30
0.0
  0
INSERT
  5
9B
330
86
100
AcDbEntity
  8
Drawing
100
AcDbBlockReference
  2
block 13
 10
0.0
 20
0.0
 30
0.0
  0
POLYLINE
  5
A2
330
86
100
AcDbEntity
  8
Drawing
370
     0
100
AcDb2dPolyline
 66
     1
 10
0.0
 20
0.0
 30
0.0
  0
VERTEX
  5
A3
330
A2
100
AcDbEntity
  8
Drawing
370
     0
100
AcDbVertex
100
AcDb2dVertex
 10
578.7230673142551
 20
-389.0525585856709
 30
0.0
  0
VERTEX
  5
A4
330
A2
100
AcDbEntity
  8
Drawing
370
     0
100
AcDbVertex
100
AcDb2dVertex
 10
578.7230673142551
 20
-391.5214615549757
 30
0.0
  0
VERTEX
  5
A5
330
A2
100
AcDbEntity
  8
Drawing
370
     0
100
AcDbVertex
100
AcDb2dVertex
 10
588.9775725681554
 20
-390.2870971322787
 30
0.0
  0
VERTEX
  5
A6
330
A2
100
AcDbEntity
  8
Drawing
370
     0
100
AcDbVertex
100
AcDb2dVertex
 10
578.7230673142551
 20
-389.0525585856709
 30
0.0
  0
SEQEND
  5
A8
330
A2
100
AcDbEntity
  8
Drawing
370
     0
  0
HATCH
  5
A7
330
86
100
AcDbEntity
  8
Drawing
 62
   250
420
  1842203
100
AcDbHatch
 10
0.0
 20
0.0
 30
0.0
210
0.0
220
0.0
230
1.0
  2
SOLID
 70
     1
 71
     0
 91
        1
 92
        1
 93
        3
 72
     1
 10
578.7230673142551
 20
-389.0525585856709
 11
578.7230673142551
 21
-391.5214615549757
 72
     1
 10
578.7230673142551
 20
-391.5214615549757
 11
588.9775725681554
 21
-390.2870971322787
 72
     1
 10
588.9775725681554
 20
-390.2870971322787
 11
578.7230673142551
 21
-389.0525585856709
 97
        0
 75
     2
 76
     1
 98
        0
  0
POLYLINE
  5
A9
330
86
100
AcDbEntity
  8
Drawing
370
     0
100
AcDb2dPolyline
 66
     1
 10
0.0
 20
0.0
 30
0.0
  0
VERTEX
  5
AA
330
A9
100
AcDbEntity
  8
Drawing
370
     0
100
AcDbVertex
100
AcDb2dVertex
 10
431.3830436389327
 20
-391.5223321745441
 30
0.0
  0
VERTEX
  5
AB
330
A9
100
AcDbEntity
  8
Drawing
370
     0
100
AcDbVertex
100
AcDb2dVertex
 10
431.3830436389327
 20
-389.0534292052393
 30
0.0
  0
VERTEX
  5
AC
330
A9
100
AcDbEntity
  8
Drawing
370
     0
100
AcDbVertex
100
AcDb2dVertex
 10
421.1295831284879
 20
-390.2877936279325
 30
0.0
  0
VERTEX
  5
AD
330
A9
100
AcDbEntity
  8
Drawing
370
     0
100
AcDbVertex
100
AcDb2dVertex
 10
431.3830436389327
 20
-391.5223321745441
 30
0.0
  0
SEQEND
  5
AF
330
A9
100
AcDbEntity
  8
Drawing
370
     0
  0
HATCH
  5
AE
330
86
100
AcDbEntity
  8
Drawing
 62
   250
420
  1842203
100
AcDbHatch
 10
0.0
 20
0.0
 30
0.0
210
0.0
220
0.0
230
1.0
  2
SOLID
 70
     1
 71
     0
 91
        1
 92
        1
 93
        3
 72
     1
 10
431.3830436389327
 20
-391.5223321745441
 11
431.3830436389327
 21
-389.0534292052393
 72
     1
 10
431.3830436389327
 20
-389.0534292052393
 11
421.1295831284879
 21
-390.2877936279325
 72
     1
 10
421.1295831284879
 20
-390.2877936279325
 11
431.3830436389327
 21
-391.5223321745441
 97
        0
 75
     2
 76
     1
 98
        0
  0
ENDBLK
  5
89
330
86
100
AcDbEntity
  8
0
100
AcDbBlockEnd
  0
BLOCK
  5
94
330
92
100
AcDbEntity
  8
0
100
AcDbBlockBegin
  2
block 12
 70
     0
 10
0.0
 20
0.0
 30
0.0
  3
block 12
  1

  0
POLYLINE
  5
96
330
92
100
AcDbEntity
  8
Drawing
 62
   250
420
  1842203
370
    40
100
AcDb2dPolyline
 66
     1
 10
0.0
 20
0.0
 30
0.0
  0
VERTEX
  5
97
330
96
100
AcDbEntity
  8
Drawing
 62
   250
420
  1842203
370
    40
100
AcDbVertex
100
AcDb2dVertex
 10
585.9805518449654
 20
-390.2870971322787
 30
0.0
  0
VERTEX
  5
98
330
96
100
AcDbEntity
  8
Drawing
 62
   250
420
  1842203
370
    40
100
AcDbVertex
100
AcDb2dVertex
 10
424.1290415864051
 20
-390.2870971322787
 30
0.0
  0
SEQEND
  5
99
330
96
100
AcDbEntity
  8
Drawing
 62
   250
420
  1842203
370
    40
  0
ENDBLK
  5
95
330
92
100
AcDbEntity
  8
0
100
AcDbBlockEnd
  0
BLOCK
  5
9C
330
9A
100
AcDbEntity
  8
0
100
AcDbBlockBegin
  2
block 13
 70
     0
 10
0.0
 20
0.0
 30
0.0
  3
block 13
  1

  0
POLYLINE
  5
9E
330
9A
100
AcDbEntity
  8
Drawing
 62
   250
420
  1842203
370
    40
100
AcDb2dPolyline
 66
     1
 10
0.0
 20
0.0
 30
0.0
  0
VERTEX
  5
9F
330
9E
100
AcDbEntity
  8
Drawing
 62
   250
420
  1842203
370
    40
100
AcDbVertex
100
AcDb2dVertex
 10
421.1295831284879
 20
-390.2870971322787
 30
0.0
  0
VERTEX
  5
A0
330
9E
100
AcDbEntity
  8
Drawing
 62
   250
420
  1842203
370
    40
100
AcDbVertex
100
AcDb2dVertex
 10
421.1295831284879
 20
-390.2870971322787
 30
0.0
  0
SEQEND
  5
A1
330
9E
100
AcDbEntity
  8
Drawing
 62
   250
420
  1842203
370
    40
  0
ENDBLK
  5
9D
330
9A
100
AcDbEntity
  8
0
100
AcDbBlockEnd
  0
BLOCK
  5
B2
330
B0
100
AcDbEntity
  8
0
100
AcDbBlockBegin
  2
block 14
 70
     0
 10
0.0
 20
0.0
 30
0.0
  3
block 14
  1

  0
INSERT
  5
B5
330
B0
100
AcDbEntity
  8
Drawing
100
AcDbBlockReference
  2
block 15
 10
0.0
 20
0.0
 30
0.0
  0
INSERT
  5
BA
330
B0
100
AcDbEntity
  8
Drawing
100
AcDbBlockReference
  2
block 16
 10
0.0
 20
0.0
 30
0.0
  0
ENDBLK
  5
B3
330
B0
100
AcDbEntity
  8
0
100
AcDbBlockEnd
  0
BLOCK
  5
B6
330
B4
100
AcDbEntity
  8
0
100
AcDbBlockBegin
  2
block 15
 70
     0
 10
0.0
 20
0.0
 30
0.0
  3
block 15
  1

  0
MTEXT
  5
B8
330
B4
100
AcDbEntity
  8
Drawing
 62
   250
420
  1842203
100
AcDbMText
 10
399.1683138379249
 20
-421.2440550704703
 30
0.0
 40
8.629581058252151
 41
0.0
 46
0.0
 71
     7
 72
     1
  1
\fArial|b0|i0|c0|p34;\W1;25
 11
6.123233995736766E-17
 21
1.0
 31
0.0
 73
     1
 44
1.0
  0
ENDBLK
  5
B7
330
B4
100
AcDbEntity
  8
0
100
AcDbBlockEnd
  0
BLOCK
  5
BB
330
B9
100
AcDbEntity
  8
0
100
AcDbBlockBegin
  2
block 16
 70
     0
 10
0.0
 20
0.0
 30
0.0
  3
block 16
  1

  0
POLYLINE
  5
BD
330
B9
100
AcDbEntity
  8
Drawing
 62
   250
420
  1842203
370
    40
100
AcDb2dPolyline
 66
     1
 10
0.0
 20
0.0
 30
0.0
  0
VERTEX
  5
BE
330
BD
100
AcDbEntity
  8
Drawing
 62
   250
420
  1842203
370
    40
100
AcDbVertex
100
AcDb2dVertex
 10
419.6423778697051
 20
-402.223603227187
 30
0.0
  0
VERTEX
  5
BF
330
BD
100
AcDbEntity
  8
Drawing
 62
   250
420
  1842203
370
    40
100
AcDbVertex
100
AcDb2dVertex
 10
403.1800741852583
 20
-402.223603227187
 30
0.0
  0
SEQEND
  5
C0
330
BD
100
AcDbEntity
  8
Drawing
 62
   250
420
  1842203
370
    40
  0
POLYLINE
  5
C1
330
B9
100
AcDbEntity
  8
Drawing
 62
   250
420
  1842203
370
    40
100
AcDb2dPolyline
 66
     1
 10
0.0
 20
0.0
 30
0.0
  0
VERTEX
  5
C2
330
C1
100
AcDbEntity
  8
Drawing
 62
   250
420
  1842203
370
    40
100
AcDbVertex
100
AcDb2dVertex
 10
419.6423778697051
 20
-427.0585422890273
 30
0.0
  0
VERTEX
  5
C3
330
C1
100
AcDbEntity
  8
Drawing
 62
   250
420
  1842203
370
    40
100
AcDbVertex
100
AcDb2dVertex
 10
403.1809448048274
 20
-427.0585422890273
 30
0.0
  0
SEQEND
  5
C4
330
C1
100
AcDbEntity
  8
Drawing
 62
   250
420
  1842203
370
    40
  0
INSERT
  5
C6
330
B9
100
AcDbEntity
  8
Drawing
100
AcDbBlockReference
  2
block 17
 10
0.0
 20
0.0
 30
0.0
  0
INSERT
  5
CE
330
B9
100
AcDbEntity
  8
Drawing
100
AcDbBlockReference
  2
block 18
 10
0.0
 20
0.0
 30
0.0
  0
POLYLINE
  5
D5
330
B9
100
AcDbEntity
  8
Drawing
370
     0
100
AcDb2dPolyline
 66
     1
 10
0.0
 20
0.0
 30
0.0
  0
VERTEX
  5
D6
330
D5
100
AcDbEntity
  8
Drawing
370
     0
100
AcDbVertex
100
AcDb2dVertex
 10
403.1800741852583
 20
-412.4781084810867
 30
0.0
  0
VERTEX
  5
D7
330
D5
100
AcDbEntity
  8
Drawing
370
     0
100
AcDbVertex
100
AcDb2dVertex
 10
405.6489771545638
 20
-412.4781084810867
 30
0.0
  0
VERTEX
  5
D8
330
D5
100
AcDbEntity
  8
Drawing
370
     0
100
AcDbVertex
100
AcDb2dVertex
 10
404.4146127318668
 20
-402.223603227187
 30
0.0
  0
VERTEX
  5
D9
330
D5
100
AcDbEntity
  8
Drawing
370
     0
100
AcDbVertex
100
AcDb2dVertex
 10
403.1800741852583
 20
-412.4781084810867
 30
0.0
  0
SEQEND
  5
DB
330
D5
100
AcDbEntity
  8
Drawing
370
     0
  0
HATCH
  5
DA
330
B9
100
AcDbEntity
  8
Drawing
 62
   250
420
  1842203
100
AcDbHatch
 10
0.0
 20
0.0
 30
0.0
210
0.0
220
0.0
230
1.0
  2
SOLID
 70
     1
 71
     0
 91
        1
 92
        1
 93
        3
 72
     1
 10
403.1800741852583
 20
-412.4781084810867
 11
405.6489771545638
 21
-412.4781084810867
 72
     1
 10
405.6489771545638
 20
-412.4781084810867
 11
404.4146127318668
 21
-402.223603227187
 72
     1
 10
404.4146127318668
 20
-402.223603227187
 11
403.1800741852583
 21
-412.4781084810867
 97
        0
 75
     2
 76
     1
 98
        0
  0
POLYLINE
  5
DC
330
B9
100
AcDbEntity
  8
Drawing
370
     0
100
AcDb2dPolyline
 66
     1
 10
0.0
 20
0.0
 30
0.0
  0
VERTEX
  5
DD
330
DC
100
AcDbEntity
  8
Drawing
370
     0
100
AcDbVertex
100
AcDb2dVertex
 10
405.6498477741322
 20
-416.8050817785818
 30
0.0
  0
VERTEX
  5
DE
330
DC
100
AcDbEntity
  8
Drawing
370
     0
100
AcDbVertex
100
AcDb2dVertex
 10
403.1809448048274
 20
-416.8050817785818
 30
0.0
  0
VERTEX
  5
DF
330
DC
100
AcDbEntity
  8
Drawing
370
     0
100
AcDbVertex
100
AcDb2dVertex
 10
404.4153092275174
 20
-427.0585422890273
 30
0.0
  0
VERTEX
  5
E0
330
DC
100
AcDbEntity
  8
Drawing
370
     0
100
AcDbVertex
100
AcDb2dVertex
 10
405.6498477741322
 20
-416.8050817785818
 30
0.0
  0
SEQEND
  5
E2
330
DC
100
AcDbEntity
  8
Drawing
370
     0
  0
HATCH
  5
E1
330
B9
100
AcDbEntity
  8
Drawing
 62
   250
420
  1842203
100
AcDbHatch
 10
0.0
 20
0.0
 30
0.0
210
0.0
220
0.0
230
1.0
  2
SOLID
 70
     1
 71
     0
 91
        1
 92
        1
 93
        3
 72
     1
 10
405.6498477741322
 20
-416.8050817785818
 11
403.1809448048274
 21
-416.8050817785818
 72
     1
 10
403.1809448048274
 20
-416.8050817785818
 11
404.4153092275174
 21
-427.0585422890273
 72
     1
 10
404.4153092275174
 20
-427.0585422890273
 11
405.6498477741322
 21
-416.8050817785818
 97
        0
 75
     2
 76
     1
 98
        0
  0
ENDBLK
  5
BC
330
B9
100
AcDbEntity
  8
0
100
AcDbBlockEnd
  0
BLOCK
  5
C7
330
C5
100
AcDbEntity
  8
0
100
AcDbBlockBegin
  2
block 17
 70
     0
 10
0.0
 20
0.0
 30
0.0
  3
block 17
  1

  0
POLYLINE
  5
C9
330
C5
100
AcDbEntity
  8
Drawing
 62
   250
420
  1842203
370
    40
100
AcDb2dPolyline
 66
     1
 10
0.0
 20
0.0
 30
0.0
  0
VERTEX
  5
CA
330
C9
100
AcDbEntity
  8
Drawing
 62
   250
420
  1842203
370
    40
100
AcDbVertex
100
AcDb2dVertex
 10
404.4146127318668
 20
-405.2206239503764
 30
0.0
  0
VERTEX
  5
CB
330
C9
100
AcDbEntity
  8
Drawing
 62
   250
420
  1842203
370
    40
100
AcDbVertex
100
AcDb2dVertex
 10
404.4146127318668
 20
-424.0590838311101
 30
0.0
  0
SEQEND
  5
CC
330
C9
100
AcDbEntity
  8
Drawing
 62
   250
420
  1842203
370
    40
  0
ENDBLK
  5
C8
330
C5
100
AcDbEntity
  8
0
100
AcDbBlockEnd
  0
BLOCK
  5
CF
330
CD
100
AcDbEntity
  8
0
100
AcDbBlockBegin
  2
block 18
 70
     0
 10
0.0
 20
0.0
 30
0.0
  3
block 18
  1

  0
POLYLINE
  5
D1
330
CD
100
AcDbEntity
  8
Drawing
 62
   250
420
  1842203
370
    40
100
AcDb2dPolyline
 66
     1
 10
0.0
 20
0.0
 30
0.0
  0
VERTEX
  5
D2
330
D1
100
AcDbEntity
  8
Drawing
 62
   250
420
  1842203
370
    40
100
AcDbVertex
100
AcDb2dVertex
 10
404.4146127318668
 20
-427.0585422890273
 30
0.0
  0
VERTEX
  5
D3
330
D1
100
AcDbEntity
  8
Drawing
 62
   250
420
  1842203
370
    40
100
AcDbVertex
100
AcDb2dVertex
 10
404.4146127318668
 20
-427.0585422890273
 30
0.0
  0
SEQEND
  5
D4
330
D1
100
AcDbEntity
  8
Drawing
 62
   250
420
  1842203
370
    40
  0
ENDBLK
  5
D0
330
CD
100
AcDbEntity
  8
0
100
AcDbBlockEnd
  0
BLOCK
  5
E5
330
E3
100
AcDbEntity
  8
0
100
AcDbBlockBegin
  2
block 19
 70
     0
 10
0.0
 20
0.0
 30
0.0
  3
block 19
  1

  0
INSERT
  5
E8
330
E3
100
AcDbEntity
  8
Drawing
100
AcDbBlockReference
  2
block 20
 10
0.0
 20
0.0
 30
0.0
  0
POLYLINE
  5
EC
330
E3
100
AcDbEntity
  8
Drawing
 62
   250
420
  1842203
370
    40
100
AcDb2dPolyline
 66
     1
 10
0.0
 20
0.0
 30
0.0
  0
VERTEX
  5
ED
330
EC
100
AcDbEntity
  8
Drawing
 62
   250
420
  1842203
370
    40
100
AcDbVertex
100
AcDb2dVertex
 10
589.5381976557132
 20
-457.1250620307275
 30
0.0
  0
VERTEX
  5
EE
330
EC
100
AcDbEntity
  8
Drawing
 62
   250
420
  1842203
370
    40
100
AcDbVertex
100
AcDb2dVertex
 10
611.292928306282
 20
-435.3703313801589
 30
0.0
  0
SEQEND
  5
EF
330
EC
100
AcDbEntity
  8
Drawing
 62
   250
420
  1842203
370
    40
  0
POLYLINE
  5
F0
330
E3
100
AcDbEntity
  8
Drawing
370
     0
100
AcDb2dPolyline
 66
     1
 10
0.0
 20
0.0
 30
0.0
  0
VERTEX
  5
F1
330
F0
100
AcDbEntity
  8
Drawing
370
     0
100
AcDbVertex
100
AcDb2dVertex
 10
594.2474504277959
 20
-454.1626764151278
 30
0.0
  0
VERTEX
  5
F2
330
F0
100
AcDbEntity
  8
Drawing
370
     0
100
AcDbVertex
100
AcDb2dVertex
 10
592.5016723961104
 20
-452.416898383442
 30
0.0
  0
VERTEX
  5
F3
330
F0
100
AcDbEntity
  8
Drawing
370
     0
100
AcDbVertex
100
AcDb2dVertex
 10
586.1234696471047
 20
-460.5407560399299
 30
0.0
  0
VERTEX
  5
F4
330
F0
100
AcDbEntity
  8
Drawing
370
     0
100
AcDbVertex
100
AcDb2dVertex
 10
594.2474504277959
 20
-454.1626764151278
 30
0.0
  0
SEQEND
  5
F6
330
F0
100
AcDbEntity
  8
Drawing
370
     0
  0
HATCH
  5
F5
330
E3
100
AcDbEntity
  8
Drawing
 62
   250
420
  1842203
100
AcDbHatch
 10
0.0
 20
0.0
 30
0.0
210
0.0
220
0.0
230
1.0
  2
SOLID
 70
     1
 71
     0
 91
        1
 92
        1
 93
        3
 72
     1
 10
594.2474504277959
 20
-454.1626764151278
 11
592.5016723961104
 21
-452.416898383442
 72
     1
 10
592.5016723961104
 20
-452.416898383442
 11
586.1234696471047
 21
-460.5407560399299
 72
     1
 10
586.1234696471047
 20
-460.5407560399299
 11
594.2474504277959
 21
-454.1626764151278
 97
        0
 75
     2
 76
     1
 98
        0
  0
ENDBLK
  5
E6
330
E3
100
AcDbEntity
  8
0
100
AcDbBlockEnd
  0
BLOCK
  5
E9
330
E7
100
AcDbEntity
  8
0
100
AcDbBlockBegin
  2
block 20
 70
     0
 10
0.0
 20
0.0
 30
0.0
  3
block 20
  1

  0
MTEXT
  5
EB
330
E7
100
AcDbEntity
  8
Drawing
 62
   250
420
  1842203
100
AcDbMText
 10
591.7777401280536
 20
-447.4801467480884
 30
0.0
 40
8.629620918624173
 41
0.0
 46
0.0
 71
     7
 72
     1
  1
\fArial|b0|i0|c0|p34;\W1;R10
 11
0.7071067811865476
 21
0.7071067811865475
 31
0.0
 73
     1
 44
1.0
  0
ENDBLK
  5
EA
330
E7
100
AcDbEntity
  8
0
100
AcDbBlockEnd
  0
BLOCK
  5
F9
330
F7
100
AcDbEntity
  8
0
100
AcDbBlockBegin
  2
block 21
 70
     0
 10
0.0
 20
0.0
 30
0.0
  3
block 21
  1

  0
INSERT
  5
FC
330
F7
100
AcDbEntity
  8
Drawing
100
AcDbBlockReference
  2
block 22
 10
0.0
 20
0.0
 30
0.0
  0
INSERT
  5
101
330
F7
100
AcDbEntity
  8
Drawing
100
AcDbBlockReference
  2
block 23
 10
0.0
 20
0.0
 30
0.0
  0
ENDBLK
  5
FA
330
F7
100
AcDbEntity
  8
0
100
AcDbBlockEnd
  0
BLOCK
  5
FD
330
FB
100
AcDbEntity
  8
0
100
AcDbBlockBegin
  2
block 22
 70
     0
 10
0.0
 20
0.0
 30
0.0
  3
block 22
  1

  0
MTEXT
  5
FF
330
FB
100
AcDbEntity
  8
Drawing
 62
   250
420
  1842203
100
AcDbMText
 10
439.2998005086646
 20
-443.8018512887891
 30
0.0
 40
8.629581058252151
 41
0.0
 46
0.0
 71
     7
 72
     1
  1
\fArial|b0|i0|c0|p34;\W1;2
 73
     1
 44
1.0
  0
ENDBLK
  5
FE
330
FB
100
AcDbEntity
  8
0
100
AcDbBlockEnd
  0
BLOCK
  5
102
330
100
100
AcDbEntity
  8
0
100
AcDbBlockBegin
  2
block 23
 70
     0
 10
0.0
 20
0.0
 30
0.0
  3
block 23
  1

  0
POLYLINE
  5
104
330
100
100
AcDbEntity
  8
Drawing
 62
   250
420
  1842203
370
    40
100
AcDb2dPolyline
 66
     1
 10
0.0
 20
0.0
 30
0.0
  0
VERTEX
  5
105
330
104
100
AcDbEntity
  8
Drawing
 62
   250
420
  1842203
370
    40
100
AcDbVertex
100
AcDb2dVertex
 10
423.0257333510692
 20
-458.8992065272931
 30
0.0
  0
VERTEX
  5
106
330
104
100
AcDbEntity
  8
Drawing
 62
   250
420
  1842203
370
    40
100
AcDbVertex
100
AcDb2dVertex
 10
423.0257333510692
 20
-447.8138481588735
 30
0.0
  0
SEQEND
  5
107
330
104
100
AcDbEntity
  8
Drawing
 62
   250
420
  1842203
370
    40
  0
POLYLINE
  5
108
330
100
100
AcDbEntity
  8
Drawing
 62
   250
420
  1842203
370
    40
100
AcDb2dPolyline
 66
     1
 10
0.0
 20
0.0
 30
0.0
  0
VERTEX
  5
109
330
108
100
AcDbEntity
  8
Drawing
 62
   250
420
  1842203
370
    40
100
AcDbVertex
100
AcDb2dVertex
 10
420.9403896132886
 20
-461.1675568536396
 30
0.0
  0
VERTEX
  5
10A
330
108
100
AcDbEntity
  8
Drawing
 62
   250
420
  1842203
370
    40
100
AcDbVertex
100
AcDb2dVertex
 10
420.9403896132886
 20
-447.8147187784419
 30
0.0
  0
SEQEND
  5
10B
330
108
100
AcDbEntity
  8
Drawing
 62
   250
420
  1842203
370
    40
  0
INSERT
  5
10D
330
100
100
AcDbEntity
  8
Drawing
100
AcDbBlockReference
  2
block 24
 10
0.0
 20
0.0
 30
0.0
  0
INSERT
  5
115
330
100
100
AcDbEntity
  8
Drawing
100
AcDbBlockReference
  2
block 25
 10
0.0
 20
0.0
 30
0.0
  0
POLYLINE
  5
11C
330
100
100
AcDbEntity
  8
Drawing
370
     0
100
AcDb2dPolyline
 66
     1
 10
0.0
 20
0.0
 30
0.0
  0
VERTEX
  5
11D
330
11C
100
AcDbEntity
  8
Drawing
370
     0
100
AcDbVertex
100
AcDb2dVertex
 10
410.6858843593921
 20
-447.8138481588735
 30
0.0
  0
VERTEX
  5
11E
330
11C
100
AcDbEntity
  8
Drawing
370
     0
100
AcDbVertex
100
AcDb2dVertex
 10
410.6858843593921
 20
-450.2827511281748
 30
0.0
  0
VERTEX
  5
11F
330
11C
100
AcDbEntity
  8
Drawing
370
     0
100
AcDbVertex
100
AcDb2dVertex
 10
420.9403896132886
 20
-449.0483867054813
 30
0.0
  0
VERTEX
  5
120
330
11C
100
AcDbEntity
  8
Drawing
370
     0
100
AcDbVertex
100
AcDb2dVertex
 10
410.6858843593921
 20
-447.8138481588735
 30
0.0
  0
SEQEND
  5
122
330
11C
100
AcDbEntity
  8
Drawing
370
     0
  0
HATCH
  5
121
330
100
100
AcDbEntity
  8
Drawing
 62
   250
420
  1842203
100
AcDbHatch
 10
0.0
 20
0.0
 30
0.0
210
0.0
220
0.0
230
1.0
  2
SOLID
 70
     1
 71
     0
 91
        1
 92
        1
 93
        3
 72
     1
 10
410.6858843593921
 20
-447.8138481588735
 11
410.6858843593921
 21
-450.2827511281748
 72
     1
 10
410.6858843593921
 20
-450.2827511281748
 11
420.9403896132886
 21
-449.0483867054813
 72
     1
 10
420.9403896132886
 20
-449.0483867054813
 11
410.6858843593921
 21
-447.8138481588735
 97
        0
 75
     2
 76
     1
 98
        0
  0
POLYLINE
  5
123
330
100
100
AcDbEntity
  8
Drawing
370
     0
100
AcDb2dPolyline
 66
     1
 10
0.0
 20
0.0
 30
0.0
  0
VERTEX
  5
124
330
123
100
AcDbEntity
  8
Drawing
370
     0
100
AcDbVertex
100
AcDb2dVertex
 10
433.2881362032637
 20
-450.2836217477433
 30
0.0
  0
VERTEX
  5
125
330
123
100
AcDbEntity
  8
Drawing
370
     0
100
AcDbVertex
100
AcDb2dVertex
 10
433.2881362032637
 20
-447.8147187784419
 30
0.0
  0
VERTEX
  5
126
330
123
100
AcDbEntity
  8
Drawing
370
     0
100
AcDbVertex
100
AcDb2dVertex
 10
423.0346756928188
 20
-449.0490832011354
 30
0.0
  0
VERTEX
  5
127
330
123
100
AcDbEntity
  8
Drawing
370
     0
100
AcDbVertex
100
AcDb2dVertex
 10
433.2881362032637
 20
-450.2836217477433
 30
0.0
  0
SEQEND
  5
129
330
123
100
AcDbEntity
  8
Drawing
370
     0
  0
HATCH
  5
128
330
100
100
AcDbEntity
  8
Drawing
 62
   250
420
  1842203
100
AcDbHatch
 10
0.0
 20
0.0
 30
0.0
210
0.0
220
0.0
230
1.0
  2
SOLID
 70
     1
 71
     0
 91
        1
 92
        1
 93
        3
 72
     1
 10
433.2881362032637
 20
-450.2836217477433
 11
433.2881362032637
 21
-447.8147187784419
 72
     1
 10
433.2881362032637
 20
-447.8147187784419
 11
423.0346756928188
 21
-449.0490832011354
 72
     1
 10
423.0346756928188
 20
-449.0490832011354
 11
433.2881362032637
 21
-450.2836217477433
 97
        0
 75
     2
 76
     1
 98
        0
  0
ENDBLK
  5
103
330
100
100
AcDbEntity
  8
0
100
AcDbBlockEnd
  0
BLOCK
  5
10E
330
10C
100
AcDbEntity
  8
0
100
AcDbBlockBegin
  2
block 24
 70
     0
 10
0.0
 20
0.0
 30
0.0
  3
block 24
  1

  0
POLYLINE
  5
110
330
10C
100
AcDbEntity
  8
Drawing
 62
   250
420
  1842203
370
    40
100
AcDb2dPolyline
 66
     1
 10
0.0
 20
0.0
 30
0.0
  0
VERTEX
  5
111
330
110
100
AcDbEntity
  8
Drawing
 62
   250
420
  1842203
370
    40
100
AcDbVertex
100
AcDb2dVertex
 10
446.0778465011548
 20
-449.0483867054813
 30
0.0
  0
VERTEX
  5
112
330
110
100
AcDbEntity
  8
Drawing
 62
   250
420
  1842203
370
    40
100
AcDbVertex
100
AcDb2dVertex
 10
403.3003896181571
 20
-449.0483867054813
 30
0.0
  0
SEQEND
  5
113
330
110
100
AcDbEntity
  8
Drawing
 62
   250
420
  1842203
370
    40
  0
ENDBLK
  5
10F
330
10C
100
AcDbEntity
  8
0
100
AcDbBlockEnd
  0
BLOCK
  5
116
330
114
100
AcDbEntity
  8
0
100
AcDbBlockBegin
  2
block 25
 70
     0
 10
0.0
 20
0.0
 30
0.0
  3
block 25
  1

  0
POLYLINE
  5
118
330
114
100
AcDbEntity
  8
Drawing
 62
   250
420
  1842203
370
    40
100
AcDb2dPolyline
 66
     1
 10
0.0
 20
0.0
 30
0.0
  0
VERTEX
  5
119
330
118
100
AcDbEntity
  8
Drawing
 62
   250
420
  1842203
370
    40
100
AcDbVertex
100
AcDb2dVertex
 10
420.9403896132886
 20
-449.0483867054813
 30
0.0
  0
VERTEX
  5
11A
330
118
100
AcDbEntity
  8
Drawing
 62
   250
420
  1842203
370
    40
100
AcDbVertex
100
AcDb2dVertex
 10
420.9403896132886
 20
-449.0483867054813
 30
0.0
  0
SEQEND
  5
11B
330
118
100
AcDbEntity
  8
Drawing
 62
   250
420
  1842203
370
    40
  0
ENDBLK
  5
117
330
114
100
AcDbEntity
  8
0
100
AcDbBlockEnd
  0
BLOCK
  5
12C
330
12A
100
AcDbEntity
  8
0
100
AcDbBlockBegin
  2
block 26
 70
     0
 10
0.0
 20
0.0
 30
0.0
  3
block 26
  1

  0
INSERT
  5
12F
330
12A
100
AcDbEntity
  8
Drawing
100
AcDbBlockReference
  2
block 27
 10
0.0
 20
0.0
 30
0.0
  0
POLYLINE
  5
133
330
12A
100
AcDbEntity
  8
Drawing
 62
   250
420
  1842203
370
    40
100
AcDb2dPolyline
 66
     1
 10
0.0
 20
0.0
 30
0.0
  0
VERTEX
  5
134
330
133
100
AcDbEntity
  8
Drawing
 62
   250
420
  1842203
370
    40
100
AcDbVertex
100
AcDb2dVertex
 10
590.7998154264558
 20
-579.9176858133109
 30
0.0
  0
VERTEX
  5
135
330
133
100
AcDbEntity
  8
Drawing
 62
   250
420
  1842203
370
    40
100
AcDbVertex
100
AcDb2dVertex
 10
607.2621191109051
 20
-579.9176858133109
 30
0.0
  0
SEQEND
  5
136
330
133
100
AcDbEntity
  8
Drawing
 62
   250
420
  1842203
370
    40
  0
POLYLINE
  5
137
330
12A
100
AcDbEntity
  8
Drawing
 62
   250
420
  1842203
370
    40
100
AcDb2dPolyline
 66
     1
 10
0.0
 20
0.0
 30
0.0
  0
VERTEX
  5
138
330
137
100
AcDbEntity
  8
Drawing
 62
   250
420
  1842203
370
    40
100
AcDbVertex
100
AcDb2dVertex
 10
590.7998154264558
 20
-577.8474059929475
 30
0.0
  0
VERTEX
  5
139
330
137
100
AcDbEntity
  8
Drawing
 62
   250
420
  1842203
370
    40
100
AcDbVertex
100
AcDb2dVertex
 10
607.2612484913367
 20
-577.8474059929475
 30
0.0
  0
SEQEND
  5
13A
330
137
100
AcDbEntity
  8
Drawing
 62
   250
420
  1842203
370
    40
  0
INSERT
  5
13C
330
12A
100
AcDbEntity
  8
Drawing
100
AcDbBlockReference
  2
block 28
 10
0.0
 20
0.0
 30
0.0
  0
INSERT
  5
144
330
12A
100
AcDbEntity
  8
Drawing
100
AcDbBlockReference
  2
block 29
 10
0.0
 20
0.0
 30
0.0
  0
POLYLINE
  5
14B
330
12A
100
AcDbEntity
  8
Drawing
370
     0
100
AcDb2dPolyline
 66
     1
 10
0.0
 20
0.0
 30
0.0
  0
VERTEX
  5
14C
330
14B
100
AcDbEntity
  8
Drawing
370
     0
100
AcDbVertex
100
AcDb2dVertex
 10
607.2621191109051
 20
-567.8509879551794
 30
0.0
  0
VERTEX
  5
14D
330
14B
100
AcDbEntity
  8
Drawing
370
     0
100
AcDbVertex
100
AcDb2dVertex
 10
604.7932161416047
 20
-567.8509879551794
 30
0.0
  0
VERTEX
  5
14E
330
14B
100
AcDbEntity
  8
Drawing
370
     0
100
AcDbVertex
100
AcDb2dVertex
 10
606.027580564298
 20
-578.1054932090798
 30
0.0
  0
VERTEX
  5
14F
330
14B
100
AcDbEntity
  8
Drawing
370
     0
100
AcDbVertex
100
AcDb2dVertex
 10
607.2621191109051
 20
-567.8509879551794
 30
0.0
  0
SEQEND
  5
151
330
14B
100
AcDbEntity
  8
Drawing
370
     0
  0
HATCH
  5
150
330
12A
100
AcDbEntity
  8
Drawing
 62
   250
420
  1842203
100
AcDbHatch
 10
0.0
 20
0.0
 30
0.0
210
0.0
220
0.0
230
1.0
  2
SOLID
 70
     1
 71
     0
 91
        1
 92
        1
 93
        3
 72
     1
 10
607.2621191109051
 20
-567.8509879551794
 11
604.7932161416047
 21
-567.8509879551794
 72
     1
 10
604.7932161416047
 20
-567.8509879551794
 11
606.027580564298
 21
-578.1054932090798
 72
     1
 10
606.027580564298
 20
-578.1054932090798
 11
607.2621191109051
 21
-567.8509879551794
 97
        0
 75
     2
 76
     1
 98
        0
  0
POLYLINE
  5
152
330
12A
100
AcDbEntity
  8
Drawing
370
     0
100
AcDb2dPolyline
 66
     1
 10
0.0
 20
0.0
 30
0.0
  0
VERTEX
  5
153
330
152
100
AcDbEntity
  8
Drawing
370
     0
100
AcDbVertex
100
AcDb2dVertex
 10
604.7923455220357
 20
-590.1711928235649
 30
0.0
  0
VERTEX
  5
154
330
152
100
AcDbEntity
  8
Drawing
370
     0
100
AcDbVertex
100
AcDb2dVertex
 10
607.2612484913367
 20
-590.1711928235649
 30
0.0
  0
VERTEX
  5
155
330
152
100
AcDbEntity
  8
Drawing
370
     0
100
AcDbVertex
100
AcDb2dVertex
 10
606.0268840686434
 20
-579.9177323131192
 30
0.0
  0
VERTEX
  5
156
330
152
100
AcDbEntity
  8
Drawing
370
     0
100
AcDbVertex
100
AcDb2dVertex
 10
604.7923455220357
 20
-590.1711928235649
 30
0.0
  0
SEQEND
  5
158
330
152
100
AcDbEntity
  8
Drawing
370
     0
  0
HATCH
  5
157
330
12A
100
AcDbEntity
  8
Drawing
 62
   250
420
  1842203
100
AcDbHatch
 10
0.0
 20
0.0
 30
0.0
210
0.0
220
0.0
230
1.0
  2
SOLID
 70
     1
 71
     0
 91
        1
 92
        1
 93
        3
 72
     1
 10
604.7923455220357
 20
-590.1711928235649
 11
607.2612484913367
 21
-590.1711928235649
 72
     1
 10
607.2612484913367
 20
-590.1711928235649
 11
606.0268840686434
 21
-579.9177323131192
 72
     1
 10
606.0268840686434
 20
-579.9177323131192
 11
604.7923455220357
 21
-590.1711928235649
 97
        0
 75
     2
 76
     1
 98
        0
  0
ENDBLK
  5
12D
330
12A
100
AcDbEntity
  8
0
100
AcDbBlockEnd
  0
BLOCK
  5
130
330
12E
100
AcDbEntity
  8
0
100
AcDbBlockBegin
  2
block 27
 70
     0
 10
0.0
 20
0.0
 30
0.0
  3
block 27
  1

  0
MTEXT
  5
132
330
12E
100
AcDbEntity
  8
Drawing
 62
   250
420
  1842203
100
AcDbMText
 10
600.7812444244574
 20
-564.7641491643645
 30
0.0
 40
8.629581058252151
 41
0.0
 46
0.0
 71
     7
 72
     1
  1
\fArial|b0|i0|c0|p34;\W1;2
 11
6.123233995736766E-17
 21
1.0
 31
0.0
 73
     1
 44
1.0
  0
ENDBLK
  5
131
330
12E
100
AcDbEntity
  8
0
100
AcDbBlockEnd
  0
BLOCK
  5
13D
330
13B
100
AcDbEntity
  8
0
100
AcDbBlockBegin
  2
block 28
 70
     0
 10
0.0
 20
0.0
 30
0.0
  3
block 28
  1

  0
POLYLINE
  5
13F
330
13B
100
AcDbEntity
  8
Drawing
 62
   250
420
  1842203
370
    40
100
AcDb2dPolyline
 66
     1
 10
0.0
 20
0.0
 30
0.0
  0
VERTEX
  5
140
330
13F
100
AcDbEntity
  8
Drawing
 62
   250
420
  1842203
370
    40
100
AcDbVertex
100
AcDb2dVertex
 10
606.0268974987241
 20
-596.256776665428
 30
0.0
  0
VERTEX
  5
141
330
13F
100
AcDbEntity
  8
Drawing
 62
   250
420
  1842203
370
    40
100
AcDbVertex
100
AcDb2dVertex
 10
606.0268974987241
 20
-557.985424161261
 30
0.0
  0
SEQEND
  5
142
330
13F
100
AcDbEntity
  8
Drawing
 62
   250
420
  1842203
370
    40
  0
ENDBLK
  5
13E
330
13B
100
AcDbEntity
  8
0
100
AcDbBlockEnd
  0
BLOCK
  5
145
330
143
100
AcDbEntity
  8
0
100
AcDbBlockBegin
  2
block 29
 70
     0
 10
0.0
 20
0.0
 30
0.0
  3
block 29
  1

  0
POLYLINE
  5
147
330
143
100
AcDbEntity
  8
Drawing
 62
   250
420
  1842203
370
    40
100
AcDb2dPolyline
 66
     1
 10
0.0
 20
0.0
 30
0.0
  0
VERTEX
  5
148
330
147
100
AcDbEntity
  8
Drawing
 62
   250
420
  1842203
370
    40
100
AcDbVertex
100
AcDb2dVertex
 10
606.027580564298
 20
-577.8474059929475
 30
0.0
  0
VERTEX
  5
149
330
147
100
AcDbEntity
  8
Drawing
 62
   250
420
  1842203
370
    40
100
AcDbVertex
100
AcDb2dVertex
 10
606.027580564298
 20
-577.8474059929475
 30
0.0
  0
SEQEND
  5
14A
330
147
100
AcDbEntity
  8
Drawing
 62
   250
420
  1842203
370
    40
  0
ENDBLK
  5
146
330
143
100
AcDbEntity
  8
0
100
AcDbBlockEnd
  0
BLOCK
  5
15B
330
159
100
AcDbEntity
  8
0
100
AcDbBlockBegin
  2
block 30
 70
     0
 10
0.0
 20
0.0
 30
0.0
  3
block 30
  1

  0
POLYLINE
  5
15D
330
159
100
AcDbEntity
  8
Drawing
 62
   250
420
  1842203
370
    80
100
AcDb2dPolyline
 66
     1
 10
0.0
 20
0.0
 30
0.0
  0
VERTEX
  5
15E
330
15D
100
AcDbEntity
  8
Drawing
 62
   250
420
  1842203
370
    80
100
AcDbVertex
100
AcDb2dVertex
 10
431.0961663729043
 20
-427.2412563332272
 30
0.0
  0
VERTEX
  5
15F
330
15D
100
AcDbEntity
  8
Drawing
 62
   250
420
  1842203
370
    80
100
AcDbVertex
100
AcDb2dVertex
 10
579.0964916195512
 20
-427.2412563332272
 30
0.0
  0
SEQEND
  5
160
330
15D
100
AcDbEntity
  8
Drawing
 62
   250
420
  1842203
370
    80
  0
POLYLINE
  5
161
330
159
100
AcDbEntity
  8
Drawing
 62
   250
420
  1842203
370
    80
100
AcDb2dPolyline
 66
     1
 10
0.0
 20
0.0
 30
0.0
  0
VERTEX
  5
162
330
161
100
AcDbEntity
  8
Drawing
 62
   250
420
  1842203
370
    80
100
AcDbVertex
100
AcDb2dVertex
 10
431.0961663729043
 20
-402.2409819183632
 30
0.0
  0
VERTEX
  5
163
330
161
100
AcDbEntity
  8
Drawing
 62
   250
420
  1842203
370
    80
100
AcDbVertex
100
AcDb2dVertex
 10
579.0964916195512
 20
-402.2409819183632
 30
0.0
  0
SEQEND
  5
164
330
161
100
AcDbEntity
  8
Drawing
 62
   250
420
  1842203
370
    80
  0
POLYLINE
  5
165
330
159
100
AcDbEntity
  8
Drawing
 62
   250
420
  1842203
370
    80
100
AcDb2dPolyline
 66
     1
 10
0.0
 20
0.0
 30
0.0
  0
VERTEX
  5
166
330
165
100
AcDbEntity
  8
Drawing
 62
   250
420
  1842203
370
    80
100
AcDbVertex
100
AcDb2dVertex
 10
589.0961840761504
 20
-427.2412563332272
 30
0.0
  0
VERTEX
  5
167
330
165
100
AcDbEntity
  8
Drawing
 62
   250
420
  1842203
370
    80
100
AcDbVertex
100
AcDb2dVertex
 10
589.0961840761504
 20
-402.2409819183632
 30
0.0
  0
SEQEND
  5
168
330
165
100
AcDbEntity
  8
Drawing
 62
   250
420
  1842203
370
    80
  0
POLYLINE
  5
169
330
159
100
AcDbEntity
  8
Drawing
 62
   250
420
  1842203
370
    80
100
AcDb2dPolyline
 66
     1
 10
0.0
 20
0.0
 30
0.0
  0
VERTEX
  5
16A
330
169
100
AcDbEntity
  8
Drawing
 62
   250
420
  1842203
370
    80
100
AcDbVertex
100
AcDb2dVertex
 10
421.0964987561502
 20
-402.2409819183632
 30
0.0
  0
VERTEX
  5
16B
330
169
100
AcDbEntity
  8
Drawing
 62
   250
420
  1842203
370
    80
100
AcDbVertex
100
AcDb2dVertex
 10
421.0964987561502
 20
-427.2412563332272
 30
0.0
  0
SEQEND
  5
16C
330
169
100
AcDbEntity
  8
Drawing
 62
   250
420
  1842203
370
    80
  0
POLYLINE
  5
16D
330
159
100
AcDbEntity
  8
Drawing
 62
   250
420
  1842203
370
    80
100
AcDb2dPolyline
 66
     1
 10
0.0
 20
0.0
 30
0.0
  0
VERTEX
  5
16E
330
16D
100
AcDbEntity
  8
Drawing
 62
   250
420
  1842203
370
    80
100
AcDbVertex
100
AcDb2dVertex
 10
431.0961663729043
 20
-427.2412563332272
 30
0.0
  0
VERTEX
  5
16F
330
16D
100
AcDbEntity
  8
Drawing
 62
   250
420
  1842203
370
    80
100
AcDbVertex
100
AcDb2dVertex
 10
421.0964987561502
 20
-427.2412563332272
 30
0.0
  0
SEQEND
  5
170
330
16D
100
AcDbEntity
  8
Drawing
 62
   250
420
  1842203
370
    80
  0
POLYLINE
  5
171
330
159
100
AcDbEntity
  8
Drawing
 62
   250
420
  1842203
370
    80
100
AcDb2dPolyline
 66
     1
 10
0.0
 20
0.0
 30
0.0
  0
VERTEX
  5
172
330
171
100
AcDbEntity
  8
Drawing
 62
   250
420
  1842203
370
    80
100
AcDbVertex
100
AcDb2dVertex
 10
589.0961840761504
 20
-427.2412563332272
 30
0.0
  0
VERTEX
  5
173
330
171
100
AcDbEntity
  8
Drawing
 62
   250
420
  1842203
370
    80
100
AcDbVertex
100
AcDb2dVertex
 10
579.0964916195512
 20
-427.2412563332272
 30
0.0
  0
SEQEND
  5
174
330
171
100
AcDbEntity
  8
Drawing
 62
   250
420
  1842203
370
    80
  0
POLYLINE
  5
175
330
159
100
AcDbEntity
  8
Drawing
 62
   250
420
  1842203
370
    80
100
AcDb2dPolyline
 66
     1
 10
0.0
 20
0.0
 30
0.0
  0
VERTEX
  5
176
330
175
100
AcDbEntity
  8
Drawing
 62
   250
420
  1842203
370
    80
100
AcDbVertex
100
AcDb2dVertex
 10
579.0964916195512
 20
-402.2409819183632
 30
0.0
  0
VERTEX
  5
177
330
175
100
AcDbEntity
  8
Drawing
 62
   250
420
  1842203
370
    80
100
AcDbVertex
100
AcDb2dVertex
 10
589.0961840761504
 20
-402.2409819183632
 30
0.0
  0
SEQEND
  5
178
330
175
100
AcDbEntity
  8
Drawing
 62
   250
420
  1842203
370
    80
  0
POLYLINE
  5
179
330
159
100
AcDbEntity
  8
Drawing
 62
   250
420
  1842203
370
    80
100
AcDb2dPolyline
 66
     1
 10
0.0
 20
0.0
 30
0.0
  0
VERTEX
  5
17A
330
179
100
AcDbEntity
  8
Drawing
 62
   250
420
  1842203
370
    80
100
AcDbVertex
100
AcDb2dVertex
 10
421.0964987561502
 20
-402.2409819183632
 30
0.0
  0
VERTEX
  5
17B
330
179
100
AcDbEntity
  8
Drawing
 62
   250
420
  1842203
370
    80
100
AcDbVertex
100
AcDb2dVertex
 10
431.0961663729043
 20
-402.2409819183632
 30
0.0
  0
SEQEND
  5
17C
330
179
100
AcDbEntity
  8
Drawing
 62
   250
420
  1842203
370
    80
  0
POLYLINE
  5
17D
330
159
100
AcDbEntity
  8
Drawing
 62
   250
420
  1842203
370
    80
100
AcDb2dPolyline
 66
     1
 10
0.0
 20
0.0
 30
0.0
  0
VERTEX
  5
17E
330
17D
100
AcDbEntity
  8
Drawing
 62
   250
420
  1842203
370
    80
100
AcDbVertex
100
AcDb2dVertex
 10
434.8786533369562
 20
-401.2409298732298
 30
0.0
  0
VERTEX
  5
17F
330
17D
100
AcDbEntity
  8
Drawing
 62
   250
420
  1842203
370
    80
100
AcDbVertex
100
AcDb2dVertex
 10
475.0162447611988
 20
-401.2409298732298
 30
0.0
  0
SEQEND
  5
180
330
17D
100
AcDbEntity
  8
Drawing
 62
   250
420
  1842203
370
    80
  0
SPLINE
  5
181
330
159
100
AcDbEntity
  8
Drawing
 62
   250
420
  1842203
370
    80
100
AcDbSpline
210
0.0
220
0.0
230
1.0
 70
     8
 71
     3
 72
     8
 73
     4
 74
     0
 42
0.0000000001
 43
0.0000000001
 12
1.0
 22
0.0
 32
0.0
 13
1.0
 23
0.0
 33
0.0
 40
0.0
 40
0.0
 40
0.0
 40
0.0
 40
1.0
 40
1.0
 40
1.0
 40
1.0
 10
434.8782227796932
 20
-401.2414597898623
 30
0.0
 10
434.1641187174911
 20
-401.2414597898623
 30
0.0
 10
433.5042731505034
 20
-401.6224036091413
 30
0.0
 10
433.1461323063217
 20
-402.2409819183632
 30
0.0
  0
SPLINE
  5
182
330
159
100
AcDbEntity
  8
Drawing
 62
   250
420
  1842203
370
    80
100
AcDbSpline
210
0.0
220
0.0
230
1.0
 70
     8
 71
     3
 72
     8
 73
     4
 74
     0
 42
0.0000000001
 43
0.0000000001
 12
1.0
 22
0.0
 32
0.0
 13
1.0
 23
0.0
 33
0.0
 40
0.0
 40
0.0
 40
0.0
 40
0.0
 40
1.0
 40
1.0
 40
1.0
 40
1.0
 10
476.7479129572521
 20
-402.2409819183632
 30
0.0
 10
476.3908485062307
 20
-401.6224036091413
 30
0.0
 10
475.7299265460828
 20
-401.2414597898623
 30
0.0
 10
475.0158142039327
 20
-401.2414597898623
 30
0.0
  0
POLYLINE
  5
183
330
159
100
AcDbEntity
  8
Drawing
 62
   250
420
  1842203
370
    80
100
AcDb2dPolyline
 66
     1
 10
0.0
 20
0.0
 30
0.0
  0
VERTEX
  5
184
330
183
100
AcDbEntity
  8
Drawing
 62
   250
420
  1842203
370
    80
100
AcDbVertex
100
AcDb2dVertex
 10
443.7306239058237
 20
-477.9205323209738
 30
0.0
  0
VERTEX
  5
185
330
183
100
AcDbEntity
  8
Drawing
 62
   250
420
  1842203
370
    80
100
AcDbVertex
100
AcDb2dVertex
 10
443.7306239058237
 20
-474.420525421879
 30
0.0
  0
SEQEND
  5
186
330
183
100
AcDbEntity
  8
Drawing
 62
   250
420
  1842203
370
    80
  0
POLYLINE
  5
187
330
159
100
AcDbEntity
  8
Drawing
 62
   250
420
  1842203
370
    80
100
AcDb2dPolyline
 66
     1
 10
0.0
 20
0.0
 30
0.0
  0
VERTEX
  5
188
330
187
100
AcDbEntity
  8
Drawing
 62
   250
420
  1842203
370
    80
100
AcDbVertex
100
AcDb2dVertex
 10
441.7304827526578
 20
-474.420525421879
 30
0.0
  0
VERTEX
  5
189
330
187
100
AcDbEntity
  8
Drawing
 62
   250
420
  1842203
370
    80
100
AcDbVertex
100
AcDb2dVertex
 10
441.7304827526578
 20
-477.9205323209738
 30
0.0
  0
SEQEND
  5
18A
330
187
100
AcDbEntity
  8
Drawing
 62
   250
420
  1842203
370
    80
  0
POLYLINE
  5
18B
330
159
100
AcDbEntity
  8
Drawing
 62
   250
420
  1842203
370
    80
100
AcDb2dPolyline
 66
     1
 10
0.0
 20
0.0
 30
0.0
  0
VERTEX
  5
18C
330
18B
100
AcDbEntity
  8
Drawing
 62
   250
420
  1842203
370
    80
100
AcDbVertex
100
AcDb2dVertex
 10
441.7304827526578
 20
-604.9211493436618
 30
0.0
  0
VERTEX
  5
18D
330
18B
100
AcDbEntity
  8
Drawing
 62
   250
420
  1842203
370
    80
100
AcDbVertex
100
AcDb2dVertex
 10
441.7304827526578
 20
-623.420691378187
 30
0.0
  0
VERTEX
  5
18E
330
18B
100
AcDbEntity
  8
Drawing
 62
   250
420
  1842203
370
    80
100
AcDbVertex
100
AcDb2dVertex
 10
443.7306239058237
 20
-623.420691378187
 30
0.0
  0
VERTEX
  5
18F
330
18B
100
AcDbEntity
  8
Drawing
 62
   250
420
  1842203
370
    80
100
AcDbVertex
100
AcDb2dVertex
 10
443.7306239058237
 20
-604.9211493436618
 30
0.0
  0
SEQEND
  5
190
330
18B
100
AcDbEntity
  8
Drawing
 62
   250
420
  1842203
370
    80
  0
POLYLINE
  5
191
330
159
100
AcDbEntity
  8
Drawing
 62
   250
420
  1842203
370
    80
100
AcDb2dPolyline
 66
     1
 10
0.0
 20
0.0
 30
0.0
  0
VERTEX
  5
192
330
191
100
AcDbEntity
  8
Drawing
 62
   250
420
  1842203
370
    80
100
AcDbVertex
100
AcDb2dVertex
 10
441.7304827526578
 20
-579.9208422026871
 30
0.0
  0
VERTEX
  5
193
330
191
100
AcDbEntity
  8
Drawing
 62
   250
420
  1842203
370
    80
100
AcDbVertex
100
AcDb2dVertex
 10
441.7304827526578
 20
-602.920991630568
 30
0.0
  0
SEQEND
  5
194
330
191
100
AcDbEntity
  8
Drawing
 62
   250
420
  1842203
370
    80
  0
POLYLINE
  5
195
330
159
100
AcDbEntity
  8
Drawing
 62
   250
420
  1842203
370
    80
100
AcDb2dPolyline
 66
     1
 10
0.0
 20
0.0
 30
0.0
  0
VERTEX
  5
196
330
195
100
AcDbEntity
  8
Drawing
 62
   250
420
  1842203
370
    80
100
AcDbVertex
100
AcDb2dVertex
 10
443.7306239058237
 20
-602.920991630568
 30
0.0
  0
VERTEX
  5
197
330
195
100
AcDbEntity
  8
Drawing
 62
   250
420
  1842203
370
    80
100
AcDbVertex
100
AcDb2dVertex
 10
443.7306239058237
 20
-579.9208422026871
 30
0.0
  0
SEQEND
  5
198
330
195
100
AcDbEntity
  8
Drawing
 62
   250
420
  1842203
370
    80
  0
POLYLINE
  5
199
330
159
100
AcDbEntity
  8
Drawing
 62
   250
420
  1842203
370
    80
100
AcDb2dPolyline
 66
     1
 10
0.0
 20
0.0
 30
0.0
  0
VERTEX
  5
19A
330
199
100
AcDbEntity
  8
Drawing
 62
   250
420
  1842203
370
    80
100
AcDbVertex
100
AcDb2dVertex
 10
441.7304827526578
 20
-554.9205516216393
 30
0.0
  0
VERTEX
  5
19B
330
199
100
AcDbEntity
  8
Drawing
 62
   250
420
  1842203
370
    80
100
AcDbVertex
100
AcDb2dVertex
 10
441.7304827526578
 20
-577.9207010495201
 30
0.0
  0
SEQEND
  5
19C
330
199
100
AcDbEntity
  8
Drawing
 62
   250
420
  1842203
370
    80
  0
POLYLINE
  5
19D
330
159
100
AcDbEntity
  8
Drawing
 62
   250
420
  1842203
370
    80
100
AcDb2dPolyline
 66
     1
 10
0.0
 20
0.0
 30
0.0
  0
VERTEX
  5
19E
330
19D
100
AcDbEntity
  8
Drawing
 62
   250
420
  1842203
370
    80
100
AcDbVertex
100
AcDb2dVertex
 10
443.7306239058237
 20
-577.9207010495201
 30
0.0
  0
VERTEX
  5
19F
330
19D
100
AcDbEntity
  8
Drawing
 62
   250
420
  1842203
370
    80
100
AcDbVertex
100
AcDb2dVertex
 10
443.7306239058237
 20
-554.9205516216393
 30
0.0
  0
SEQEND
  5
1A0
330
19D
100
AcDbEntity
  8
Drawing
 62
   250
420
  1842203
370
    80
  0
POLYLINE
  5
1A1
330
159
100
AcDbEntity
  8
Drawing
 62
   250
420
  1842203
370
    80
100
AcDb2dPolyline
 66
     1
 10
0.0
 20
0.0
 30
0.0
  0
VERTEX
  5
1A2
330
1A1
100
AcDbEntity
  8
Drawing
 62
   250
420
  1842203
370
    80
100
AcDbVertex
100
AcDb2dVertex
 10
441.7304827526578
 20
-529.9213208759464
 30
0.0
  0
VERTEX
  5
1A3
330
1A1
100
AcDbEntity
  8
Drawing
 62
   250
420
  1842203
370
    80
100
AcDbVertex
100
AcDb2dVertex
 10
441.7304827526578
 20
-552.9214703038266
 30
0.0
  0
SEQEND
  5
1A4
330
1A1
100
AcDbEntity
  8
Drawing
 62
   250
420
  1842203
370
    80
  0
POLYLINE
  5
1A5
330
159
100
AcDbEntity
  8
Drawing
 62
   250
420
  1842203
370
    80
100
AcDb2dPolyline
 66
     1
 10
0.0
 20
0.0
 30
0.0
  0
VERTEX
  5
1A6
330
1A5
100
AcDbEntity
  8
Drawing
 62
   250
420
  1842203
370
    80
100
AcDbVertex
100
AcDb2dVertex
 10
443.7306239058237
 20
-552.9214703038266
 30
0.0
  0
VERTEX
  5
1A7
330
1A5
100
AcDbEntity
  8
Drawing
 62
   250
420
  1842203
370
    80
100
AcDbVertex
100
AcDb2dVertex
 10
443.7306239058237
 20
-529.9213208759464
 30
0.0
  0
SEQEND
  5
1A8
330
1A5
100
AcDbEntity
  8
Drawing
 62
   250
420
  1842203
370
    80
  0
POLYLINE
  5
1A9
330
159
100
AcDbEntity
  8
Drawing
 62
   250
420
  1842203
370
    80
100
AcDb2dPolyline
 66
     1
 10
0.0
 20
0.0
 30
0.0
  0
VERTEX
  5
1AA
330
1A9
100
AcDbEntity
  8
Drawing
 62
   250
420
  1842203
370
    80
100
AcDbVertex
100
AcDb2dVertex
 10
441.7304827526578
 20
-504.9209971750438
 30
0.0
  0
VERTEX
  5
1AB
330
1A9
100
AcDbEntity
  8
Drawing
 62
   250
420
  1842203
370
    80
100
AcDbVertex
100
AcDb2dVertex
 10
441.7304827526578
 20
-527.921146602924
 30
0.0
  0
SEQEND
  5
1AC
330
1A9
100
AcDbEntity
  8
Drawing
 62
   250
420
  1842203
370
    80
  0
POLYLINE
  5
1AD
330
159
100
AcDbEntity
  8
Drawing
 62
   250
420
  1842203
370
    80
100
AcDb2dPolyline
 66
     1
 10
0.0
 20
0.0
 30
0.0
  0
VERTEX
  5
1AE
330
1AD
100
AcDbEntity
  8
Drawing
 62
   250
420
  1842203
370
    80
100
AcDbVertex
100
AcDb2dVertex
 10
443.7306239058237
 20
-527.921146602924
 30
0.0
  0
VERTEX
  5
1AF
330
1AD
100
AcDbEntity
  8
Drawing
 62
   250
420
  1842203
370
    80
100
AcDbVertex
100
AcDb2dVertex
 10
443.7306239058237
 20
-504.9209971750438
 30
0.0
  0
SEQEND
  5
1B0
330
1AD
100
AcDbEntity
  8
Drawing
 62
   250
420
  1842203
370
    80
  0
POLYLINE
  5
1B1
330
159
100
AcDbEntity
  8
Drawing
 62
   250
420
  1842203
370
    80
100
AcDb2dPolyline
 66
     1
 10
0.0
 20
0.0
 30
0.0
  0
VERTEX
  5
1B2
330
1B1
100
AcDbEntity
  8
Drawing
 62
   250
420
  1842203
370
    80
100
AcDbVertex
100
AcDb2dVertex
 10
441.7304827526578
 20
-479.9206734741409
 30
0.0
  0
VERTEX
  5
1B3
330
1B1
100
AcDbEntity
  8
Drawing
 62
   250
420
  1842203
370
    80
100
AcDbVertex
100
AcDb2dVertex
 10
441.7304827526578
 20
-502.9208560218767
 30
0.0
  0
SEQEND
  5
1B4
330
1B1
100
AcDbEntity
  8
Drawing
 62
   250
420
  1842203
370
    80
  0
POLYLINE
  5
1B5
330
159
100
AcDbEntity
  8
Drawing
 62
   250
420
  1842203
370
    80
100
AcDb2dPolyline
 66
     1
 10
0.0
 20
0.0
 30
0.0
  0
VERTEX
  5
1B6
330
1B5
100
AcDbEntity
  8
Drawing
 62
   250
420
  1842203
370
    80
100
AcDbVertex
100
AcDb2dVertex
 10
443.7306239058237
 20
-502.9208560218767
 30
0.0
  0
VERTEX
  5
1B7
330
1B5
100
AcDbEntity
  8
Drawing
 62
   250
420
  1842203
370
    80
100
AcDbVertex
100
AcDb2dVertex
 10
443.7306239058237
 20
-479.9206734741409
 30
0.0
  0
SEQEND
  5
1B8
330
1B5
100
AcDbEntity
  8
Drawing
 62
   250
420
  1842203
370
    80
  0
POLYLINE
  5
1B9
330
159
100
AcDbEntity
  8
Drawing
 62
   250
420
  1842203
370
    80
100
AcDb2dPolyline
 66
     1
 10
0.0
 20
0.0
 30
0.0
  0
VERTEX
  5
1BA
330
1B9
100
AcDbEntity
  8
Drawing
 62
   250
420
  1842203
370
    80
100
AcDbVertex
100
AcDb2dVertex
 10
443.7306239058237
 20
-504.9209971750438
 30
0.0
  0
VERTEX
  5
1BB
330
1B9
100
AcDbEntity
  8
Drawing
 62
   250
420
  1842203
370
    80
100
AcDbVertex
100
AcDb2dVertex
 10
441.7304827526578
 20
-504.9209971750438
 30
0.0
  0
SEQEND
  5
1BC
330
1B9
100
AcDbEntity
  8
Drawing
 62
   250
420
  1842203
370
    80
  0
POLYLINE
  5
1BD
330
159
100
AcDbEntity
  8
Drawing
 62
   250
420
  1842203
370
    80
100
AcDb2dPolyline
 66
     1
 10
0.0
 20
0.0
 30
0.0
  0
VERTEX
  5
1BE
330
1BD
100
AcDbEntity
  8
Drawing
 62
   250
420
  1842203
370
    80
100
AcDbVertex
100
AcDb2dVertex
 10
441.7304827526578
 20
-502.9208560218767
 30
0.0
  0
VERTEX
  5
1BF
330
1BD
100
AcDbEntity
  8
Drawing
 62
   250
420
  1842203
370
    80
100
AcDbVertex
100
AcDb2dVertex
 10
443.7306239058237
 20
-502.9208560218767
 30
0.0
  0
SEQEND
  5
1C0
330
1BD
100
AcDbEntity
  8
Drawing
 62
   250
420
  1842203
370
    80
  0
POLYLINE
  5
1C1
330
159
100
AcDbEntity
  8
Drawing
 62
   250
420
  1842203
370
    80
100
AcDb2dPolyline
 66
     1
 10
0.0
 20
0.0
 30
0.0
  0
VERTEX
  5
1C2
330
1C1
100
AcDbEntity
  8
Drawing
 62
   250
420
  1842203
370
    80
100
AcDbVertex
100
AcDb2dVertex
 10
443.7306239058237
 20
-529.9213208759464
 30
0.0
  0
VERTEX
  5
1C3
330
1C1
100
AcDbEntity
  8
Drawing
 62
   250
420
  1842203
370
    80
100
AcDbVertex
100
AcDb2dVertex
 10
441.7304827526578
 20
-529.9213208759464
 30
0.0
  0
SEQEND
  5
1C4
330
1C1
100
AcDbEntity
  8
Drawing
 62
   250
420
  1842203
370
    80
  0
POLYLINE
  5
1C5
330
159
100
AcDbEntity
  8
Drawing
 62
   250
420
  1842203
370
    80
100
AcDb2dPolyline
 66
     1
 10
0.0
 20
0.0
 30
0.0
  0
VERTEX
  5
1C6
330
1C5
100
AcDbEntity
  8
Drawing
 62
   250
420
  1842203
370
    80
100
AcDbVertex
100
AcDb2dVertex
 10
441.7304827526578
 20
-527.921146602924
 30
0.0
  0
VERTEX
  5
1C7
330
1C5
100
AcDbEntity
  8
Drawing
 62
   250
420
  1842203
370
    80
100
AcDbVertex
100
AcDb2dVertex
 10
443.7306239058237
 20
-527.921146602924
 30
0.0
  0
SEQEND
  5
1C8
330
1C5
100
AcDbEntity
  8
Drawing
 62
   250
420
  1842203
370
    80
  0
POLYLINE
  5
1C9
330
159
100
AcDbEntity
  8
Drawing
 62
   250
420
  1842203
370
    80
100
AcDb2dPolyline
 66
     1
 10
0.0
 20
0.0
 30
0.0
  0
VERTEX
  5
1CA
330
1C9
100
AcDbEntity
  8
Drawing
 62
   250
420
  1842203
370
    80
100
AcDbVertex
100
AcDb2dVertex
 10
443.7306239058237
 20
-554.9205516216393
 30
0.0
  0
VERTEX
  5
1CB
330
1C9
100
AcDbEntity
  8
Drawing
 62
   250
420
  1842203
370
    80
100
AcDbVertex
100
AcDb2dVertex
 10
441.7304827526578
 20
-554.9205516216393
 30
0.0
  0
SEQEND
  5
1CC
330
1C9
100
AcDbEntity
  8
Drawing
 62
   250
420
  1842203
370
    80
  0
POLYLINE
  5
1CD
330
159
100
AcDbEntity
  8
Drawing
 62
   250
420
  1842203
370
    80
100
AcDb2dPolyline
 66
     1
 10
0.0
 20
0.0
 30
0.0
  0
VERTEX
  5
1CE
330
1CD
100
AcDbEntity
  8
Drawing
 62
   250
420
  1842203
370
    80
100
AcDbVertex
100
AcDb2dVertex
 10
441.7304827526578
 20
-552.9214703038266
 30
0.0
  0
VERTEX
  5
1CF
330
1CD
100
AcDbEntity
  8
Drawing
 62
   250
420
  1842203
370
    80
100
AcDbVertex
100
AcDb2dVertex
 10
443.7306239058237
 20
-552.9214703038266
 30
0.0
  0
SEQEND
  5
1D0
330
1CD
100
AcDbEntity
  8
Drawing
 62
   250
420
  1842203
370
    80
  0
POLYLINE
  5
1D1
330
159
100
AcDbEntity
  8
Drawing
 62
   250
420
  1842203
370
    80
100
AcDb2dPolyline
 66
     1
 10
0.0
 20
0.0
 30
0.0
  0
VERTEX
  5
1D2
330
1D1
100
AcDbEntity
  8
Drawing
 62
   250
420
  1842203
370
    80
100
AcDbVertex
100
AcDb2dVertex
 10
443.7306239058237
 20
-579.9208422026871
 30
0.0
  0
VERTEX
  5
1D3
330
1D1
100
AcDbEntity
  8
Drawing
 62
   250
420
  1842203
370
    80
100
AcDbVertex
100
AcDb2dVertex
 10
441.7304827526578
 20
-579.9208422026871
 30
0.0
  0
SEQEND
  5
1D4
330
1D1
100
AcDbEntity
  8
Drawing
 62
   250
420
  1842203
370
    80
  0
POLYLINE
  5
1D5
330
159
100
AcDbEntity
  8
Drawing
 62
   250
420
  1842203
370
    80
100
AcDb2dPolyline
 66
     1
 10
0.0
 20
0.0
 30
0.0
  0
VERTEX
  5
1D6
330
1D5
100
AcDbEntity
  8
Drawing
 62
   250
420
  1842203
370
    80
100
AcDbVertex
100
AcDb2dVertex
 10
441.7304827526578
 20
-577.9207010495201
 30
0.0
  0
VERTEX
  5
1D7
330
1D5
100
AcDbEntity
  8
Drawing
 62
   250
420
  1842203
370
    80
100
AcDbVertex
100
AcDb2dVertex
 10
443.7306239058237
 20
-577.9207010495201
 30
0.0
  0
SEQEND
  5
1D8
330
1D5
100
AcDbEntity
  8
Drawing
 62
   250
420
  1842203
370
    80
  0
POLYLINE
  5
1D9
330
159
100
AcDbEntity
  8
Drawing
 62
   250
420
  1842203
370
    80
100
AcDb2dPolyline
 66
     1
 10
0.0
 20
0.0
 30
0.0
  0
VERTEX
  5
1DA
330
1D9
100
AcDbEntity
  8
Drawing
 62
   250
420
  1842203
370
    80
100
AcDbVertex
100
AcDb2dVertex
 10
443.7306239058237
 20
-604.9211493436618
 30
0.0
  0
VERTEX
  5
1DB
330
1D9
100
AcDbEntity
  8
Drawing
 62
   250
420
  1842203
370
    80
100
AcDbVertex
100
AcDb2dVertex
 10
441.7304827526578
 20
-604.9211493436618
 30
0.0
  0
SEQEND
  5
1DC
330
1D9
100
AcDbEntity
  8
Drawing
 62
   250
420
  1842203
370
    80
  0
POLYLINE
  5
1DD
330
159
100
AcDbEntity
  8
Drawing
 62
   250
420
  1842203
370
    80
100
AcDb2dPolyline
 66
     1
 10
0.0
 20
0.0
 30
0.0
  0
VERTEX
  5
1DE
330
1DD
100
AcDbEntity
  8
Drawing
 62
   250
420
  1842203
370
    80
100
AcDbVertex
100
AcDb2dVertex
 10
441.7304827526578
 20
-602.920991630568
 30
0.0
  0
VERTEX
  5
1DF
330
1DD
100
AcDbEntity
  8
Drawing
 62
   250
420
  1842203
370
    80
100
AcDbVertex
100
AcDb2dVertex
 10
443.7306239058237
 20
-602.920991630568
 30
0.0
  0
SEQEND
  5
1E0
330
1DD
100
AcDbEntity
  8
Drawing
 62
   250
420
  1842203
370
    80
  0
POLYLINE
  5
1E1
330
159
100
AcDbEntity
  8
Drawing
 62
   250
420
  1842203
370
    80
100
AcDb2dPolyline
 66
     1
 10
0.0
 20
0.0
 30
0.0
  0
VERTEX
  5
1E2
330
1E1
100
AcDbEntity
  8
Drawing
 62
   250
420
  1842203
370
    80
100
AcDbVertex
100
AcDb2dVertex
 10
441.7302674736038
 20
-477.9207310401031
 30
0.0
  0
VERTEX
  5
1E3
330
1E1
100
AcDbEntity
  8
Drawing
 62
   250
420
  1842203
370
    80
100
AcDbVertex
100
AcDb2dVertex
 10
443.7304251866983
 20
-477.9207310401031
 30
0.0
  0
SEQEND
  5
1E4
330
1E1
100
AcDbEntity
  8
Drawing
 62
   250
420
  1842203
370
    80
  0
POLYLINE
  5
1E5
330
159
100
AcDbEntity
  8
Drawing
 62
   250
420
  1842203
370
    80
100
AcDb2dPolyline
 66
     1
 10
0.0
 20
0.0
 30
0.0
  0
VERTEX
  5
1E6
330
1E5
100
AcDbEntity
  8
Drawing
 62
   250
420
  1842203
370
    80
100
AcDbVertex
100
AcDb2dVertex
 10
443.7304251866983
 20
-479.9208721932695
 30
0.0
  0
VERTEX
  5
1E7
330
1E5
100
AcDbEntity
  8
Drawing
 62
   250
420
  1842203
370
    80
100
AcDbVertex
100
AcDb2dVertex
 10
441.7302674736038
 20
-479.9208721932695
 30
0.0
  0
SEQEND
  5
1E8
330
1E5
100
AcDbEntity
  8
Drawing
 62
   250
420
  1842203
370
    80
  0
POLYLINE
  5
1E9
330
159
100
AcDbEntity
  8
Drawing
 62
   250
420
  1842203
370
    80
100
AcDb2dPolyline
 66
     1
 10
0.0
 20
0.0
 30
0.0
  0
VERTEX
  5
1EA
330
1E9
100
AcDbEntity
  8
Drawing
 62
   250
420
  1842203
370
    80
100
AcDbVertex
100
AcDb2dVertex
 10
468.7306164081777
 20
-477.9205323209738
 30
0.0
  0
VERTEX
  5
1EB
330
1E9
100
AcDbEntity
  8
Drawing
 62
   250
420
  1842203
370
    80
100
AcDbVertex
100
AcDb2dVertex
 10
468.7306164081777
 20
-474.420525421879
 30
0.0
  0
SEQEND
  5
1EC
330
1E9
100
AcDbEntity
  8
Drawing
 62
   250
420
  1842203
370
    80
  0
POLYLINE
  5
1ED
330
159
100
AcDbEntity
  8
Drawing
 62
   250
420
  1842203
370
    80
100
AcDb2dPolyline
 66
     1
 10
0.0
 20
0.0
 30
0.0
  0
VERTEX
  5
1EE
330
1ED
100
AcDbEntity
  8
Drawing
 62
   250
420
  1842203
370
    80
100
AcDbVertex
100
AcDb2dVertex
 10
466.7304752550119
 20
-474.420525421879
 30
0.0
  0
VERTEX
  5
1EF
330
1ED
100
AcDbEntity
  8
Drawing
 62
   250
420
  1842203
370
    80
100
AcDbVertex
100
AcDb2dVertex
 10
466.7304752550119
 20
-477.9205323209738
 30
0.0
  0
SEQEND
  5
1F0
330
1ED
100
AcDbEntity
  8
Drawing
 62
   250
420
  1842203
370
    80
  0
POLYLINE
  5
1F1
330
159
100
AcDbEntity
  8
Drawing
 62
   250
420
  1842203
370
    80
100
AcDb2dPolyline
 66
     1
 10
0.0
 20
0.0
 30
0.0
  0
VERTEX
  5
1F2
330
1F1
100
AcDbEntity
  8
Drawing
 62
   250
420
  1842203
370
    80
100
AcDbVertex
100
AcDb2dVertex
 10
466.7304752550119
 20
-604.9211493436618
 30
0.0
  0
VERTEX
  5
1F3
330
1F1
100
AcDbEntity
  8
Drawing
 62
   250
420
  1842203
370
    80
100
AcDbVertex
100
AcDb2dVertex
 10
466.7304752550119
 20
-623.420691378187
 30
0.0
  0
VERTEX
  5
1F4
330
1F1
100
AcDbEntity
  8
Drawing
 62
   250
420
  1842203
370
    80
100
AcDbVertex
100
AcDb2dVertex
 10
468.7306164081777
 20
-623.420691378187
 30
0.0
  0
VERTEX
  5
1F5
330
1F1
100
AcDbEntity
  8
Drawing
 62
   250
420
  1842203
370
    80
100
AcDbVertex
100
AcDb2dVertex
 10
468.7306164081777
 20
-604.9211493436618
 30
0.0
  0
SEQEND
  5
1F6
330
1F1
100
AcDbEntity
  8
Drawing
 62
   250
420
  1842203
370
    80
  0
POLYLINE
  5
1F7
330
159
100
AcDbEntity
  8
Drawing
 62
   250
420
  1842203
370
    80
100
AcDb2dPolyline
 66
     1
 10
0.0
 20
0.0
 30
0.0
  0
VERTEX
  5
1F8
330
1F7
100
AcDbEntity
  8
Drawing
 62
   250
420
  1842203
370
    80
100
AcDbVertex
100
AcDb2dVertex
 10
466.7304752550119
 20
-579.9208422026871
 30
0.0
  0
VERTEX
  5
1F9
330
1F7
100
AcDbEntity
  8
Drawing
 62
   250
420
  1842203
370
    80
100
AcDbVertex
100
AcDb2dVertex
 10
466.7304752550119
 20
-602.920991630568
 30
0.0
  0
SEQEND
  5
1FA
330
1F7
100
AcDbEntity
  8
Drawing
 62
   250
420
  1842203
370
    80
  0
POLYLINE
  5
1FB
330
159
100
AcDbEntity
  8
Drawing
 62
   250
420
  1842203
370
    80
100
AcDb2dPolyline
 66
     1
 10
0.0
 20
0.0
 30
0.0
  0
VERTEX
  5
1FC
330
1FB
100
AcDbEntity
  8
Drawing
 62
   250
420
  1842203
370
    80
100
AcDbVertex
100
AcDb2dVertex
 10
468.7306164081777
 20
-602.920991630568
 30
0.0
  0
VERTEX
  5
1FD
330
1FB
100
AcDbEntity
  8
Drawing
 62
   250
420
  1842203
370
    80
100
AcDbVertex
100
AcDb2dVertex
 10
468.7306164081777
 20
-579.9208422026871
 30
0.0
  0
SEQEND
  5
1FE
330
1FB
100
AcDbEntity
  8
Drawing
 62
   250
420
  1842203
370
    80
  0
POLYLINE
  5
1FF
330
159
100
AcDbEntity
  8
Drawing
 62
   250
420
  1842203
370
    80
100
AcDb2dPolyline
 66
     1
 10
0.0
 20
0.0
 30
0.0
  0
VERTEX
  5
200
330
1FF
100
AcDbEntity
  8
Drawing
 62
   250
420
  1842203
370
    80
100
AcDbVertex
100
AcDb2dVertex
 10
466.7304752550119
 20
-554.9205516216393
 30
0.0
  0
VERTEX
  5
201
330
1FF
100
AcDbEntity
  8
Drawing
 62
   250
420
  1842203
370
    80
100
AcDbVertex
100
AcDb2dVertex
 10
466.7304752550119
 20
-577.9207010495201
 30
0.0
  0
SEQEND
  5
202
330
1FF
100
AcDbEntity
  8
Drawing
 62
   250
420
  1842203
370
    80
  0
POLYLINE
  5
203
330
159
100
AcDbEntity
  8
Drawing
 62
   250
420
  1842203
370
    80
100
AcDb2dPolyline
 66
     1
 10
0.0
 20
0.0
 30
0.0
  0
VERTEX
  5
204
330
203
100
AcDbEntity
  8
Drawing
 62
   250
420
  1842203
370
    80
100
AcDbVertex
100
AcDb2dVertex
 10
468.7306164081777
 20
-577.9207010495201
 30
0.0
  0
VERTEX
  5
205
330
203
100
AcDbEntity
  8
Drawing
 62
   250
420
  1842203
370
    80
100
AcDbVertex
100
AcDb2dVertex
 10
468.7306164081777
 20
-554.9205516216393
 30
0.0
  0
SEQEND
  5
206
330
203
100
AcDbEntity
  8
Drawing
 62
   250
420
  1842203
370
    80
  0
POLYLINE
  5
207
330
159
100
AcDbEntity
  8
Drawing
 62
   250
420
  1842203
370
    80
100
AcDb2dPolyline
 66
     1
 10
0.0
 20
0.0
 30
0.0
  0
VERTEX
  5
208
330
207
100
AcDbEntity
  8
Drawing
 62
   250
420
  1842203
370
    80
100
AcDbVertex
100
AcDb2dVertex
 10
466.7304752550119
 20
-529.9213208759464
 30
0.0
  0
VERTEX
  5
209
330
207
100
AcDbEntity
  8
Drawing
 62
   250
420
  1842203
370
    80
100
AcDbVertex
100
AcDb2dVertex
 10
466.7304752550119
 20
-552.9214703038266
 30
0.0
  0
SEQEND
  5
20A
330
207
100
AcDbEntity
  8
Drawing
 62
   250
420
  1842203
370
    80
  0
POLYLINE
  5
20B
330
159
100
AcDbEntity
  8
Drawing
 62
   250
420
  1842203
370
    80
100
AcDb2dPolyline
 66
     1
 10
0.0
 20
0.0
 30
0.0
  0
VERTEX
  5
20C
330
20B
100
AcDbEntity
  8
Drawing
 62
   250
420
  1842203
370
    80
100
AcDbVertex
100
AcDb2dVertex
 10
468.7306164081777
 20
-552.9214703038266
 30
0.0
  0
VERTEX
  5
20D
330
20B
100
AcDbEntity
  8
Drawing
 62
   250
420
  1842203
370
    80
100
AcDbVertex
100
AcDb2dVertex
 10
468.7306164081777
 20
-529.9213208759464
 30
0.0
  0
SEQEND
  5
20E
330
20B
100
AcDbEntity
  8
Drawing
 62
   250
420
  1842203
370
    80
  0
POLYLINE
  5
20F
330
159
100
AcDbEntity
  8
Drawing
 62
   250
420
  1842203
370
    80
100
AcDb2dPolyline
 66
     1
 10
0.0
 20
0.0
 30
0.0
  0
VERTEX
  5
210
330
20F
100
AcDbEntity
  8
Drawing
 62
   250
420
  1842203
370
    80
100
AcDbVertex
100
AcDb2dVertex
 10
466.7304752550119
 20
-504.9209971750438
 30
0.0
  0
VERTEX
  5
211
330
20F
100
AcDbEntity
  8
Drawing
 62
   250
420
  1842203
370
    80
100
AcDbVertex
100
AcDb2dVertex
 10
466.7304752550119
 20
-527.921146602924
 30
0.0
  0
SEQEND
  5
212
330
20F
100
AcDbEntity
  8
Drawing
 62
   250
420
  1842203
370
    80
  0
POLYLINE
  5
213
330
159
100
AcDbEntity
  8
Drawing
 62
   250
420
  1842203
370
    80
100
AcDb2dPolyline
 66
     1
 10
0.0
 20
0.0
 30
0.0
  0
VERTEX
  5
214
330
213
100
AcDbEntity
  8
Drawing
 62
   250
420
  1842203
370
    80
100
AcDbVertex
100
AcDb2dVertex
 10
468.7306164081777
 20
-527.921146602924
 30
0.0
  0
VERTEX
  5
215
330
213
100
AcDbEntity
  8
Drawing
 62
   250
420
  1842203
370
    80
100
AcDbVertex
100
AcDb2dVertex
 10
468.7306164081777
 20
-504.9209971750438
 30
0.0
  0
SEQEND
  5
216
330
213
100
AcDbEntity
  8
Drawing
 62
   250
420
  1842203
370
    80
  0
POLYLINE
  5
217
330
159
100
AcDbEntity
  8
Drawing
 62
   250
420
  1842203
370
    80
100
AcDb2dPolyline
 66
     1
 10
0.0
 20
0.0
 30
0.0
  0
VERTEX
  5
218
330
217
100
AcDbEntity
  8
Drawing
 62
   250
420
  1842203
370
    80
100
AcDbVertex
100
AcDb2dVertex
 10
466.7304752550119
 20
-479.9206734741409
 30
0.0
  0
VERTEX
  5
219
330
217
100
AcDbEntity
  8
Drawing
 62
   250
420
  1842203
370
    80
100
AcDbVertex
100
AcDb2dVertex
 10
466.7304752550119
 20
-502.9208560218767
 30
0.0
  0
SEQEND
  5
21A
330
217
100
AcDbEntity
  8
Drawing
 62
   250
420
  1842203
370
    80
  0
POLYLINE
  5
21B
330
159
100
AcDbEntity
  8
Drawing
 62
   250
420
  1842203
370
    80
100
AcDb2dPolyline
 66
     1
 10
0.0
 20
0.0
 30
0.0
  0
VERTEX
  5
21C
330
21B
100
AcDbEntity
  8
Drawing
 62
   250
420
  1842203
370
    80
100
AcDbVertex
100
AcDb2dVertex
 10
468.7306164081777
 20
-502.9208560218767
 30
0.0
  0
VERTEX
  5
21D
330
21B
100
AcDbEntity
  8
Drawing
 62
   250
420
  1842203
370
    80
100
AcDbVertex
100
AcDb2dVertex
 10
468.7306164081777
 20
-479.9206734741409
 30
0.0
  0
SEQEND
  5
21E
330
21B
100
AcDbEntity
  8
Drawing
 62
   250
420
  1842203
370
    80
  0
POLYLINE
  5
21F
330
159
100
AcDbEntity
  8
Drawing
 62
   250
420
  1842203
370
    80
100
AcDb2dPolyline
 66
     1
 10
0.0
 20
0.0
 30
0.0
  0
VERTEX
  5
220
330
21F
100
AcDbEntity
  8
Drawing
 62
   250
420
  1842203
370
    80
100
AcDbVertex
100
AcDb2dVertex
 10
468.7306164081777
 20
-504.9209971750438
 30
0.0
  0
VERTEX
  5
221
330
21F
100
AcDbEntity
  8
Drawing
 62
   250
420
  1842203
370
    80
100
AcDbVertex
100
AcDb2dVertex
 10
466.7304752550119
 20
-504.9209971750438
 30
0.0
  0
SEQEND
  5
222
330
21F
100
AcDbEntity
  8
Drawing
 62
   250
420
  1842203
370
    80
  0
POLYLINE
  5
223
330
159
100
AcDbEntity
  8
Drawing
 62
   250
420
  1842203
370
    80
100
AcDb2dPolyline
 66
     1
 10
0.0
 20
0.0
 30
0.0
  0
VERTEX
  5
224
330
223
100
AcDbEntity
  8
Drawing
 62
   250
420
  1842203
370
    80
100
AcDbVertex
100
AcDb2dVertex
 10
466.7304752550119
 20
-502.9208560218767
 30
0.0
  0
VERTEX
  5
225
330
223
100
AcDbEntity
  8
Drawing
 62
   250
420
  1842203
370
    80
100
AcDbVertex
100
AcDb2dVertex
 10
468.7306164081777
 20
-502.9208560218767
 30
0.0
  0
SEQEND
  5
226
330
223
100
AcDbEntity
  8
Drawing
 62
   250
420
  1842203
370
    80
  0
POLYLINE
  5
227
330
159
100
AcDbEntity
  8
Drawing
 62
   250
420
  1842203
370
    80
100
AcDb2dPolyline
 66
     1
 10
0.0
 20
0.0
 30
0.0
  0
VERTEX
  5
228
330
227
100
AcDbEntity
  8
Drawing
 62
   250
420
  1842203
370
    80
100
AcDbVertex
100
AcDb2dVertex
 10
468.7306164081777
 20
-529.9213208759464
 30
0.0
  0
VERTEX
  5
229
330
227
100
AcDbEntity
  8
Drawing
 62
   250
420
  1842203
370
    80
100
AcDbVertex
100
AcDb2dVertex
 10
466.7304752550119
 20
-529.9213208759464
 30
0.0
  0
SEQEND
  5
22A
330
227
100
AcDbEntity
  8
Drawing
 62
   250
420
  1842203
370
    80
  0
POLYLINE
  5
22B
330
159
100
AcDbEntity
  8
Drawing
 62
   250
420
  1842203
370
    80
100
AcDb2dPolyline
 66
     1
 10
0.0
 20
0.0
 30
0.0
  0
VERTEX
  5
22C
330
22B
100
AcDbEntity
  8
Drawing
 62
   250
420
  1842203
370
    80
100
AcDbVertex
100
AcDb2dVertex
 10
466.7304752550119
 20
-527.921146602924
 30
0.0
  0
VERTEX
  5
22D
330
22B
100
AcDbEntity
  8
Drawing
 62
   250
420
  1842203
370
    80
100
AcDbVertex
100
AcDb2dVertex
 10
468.7306164081777
 20
-527.921146602924
 30
0.0
  0
SEQEND
  5
22E
330
22B
100
AcDbEntity
  8
Drawing
 62
   250
420
  1842203
370
    80
  0
POLYLINE
  5
22F
330
159
100
AcDbEntity
  8
Drawing
 62
   250
420
  1842203
370
    80
100
AcDb2dPolyline
 66
     1
 10
0.0
 20
0.0
 30
0.0
  0
VERTEX
  5
230
330
22F
100
AcDbEntity
  8
Drawing
 62
   250
420
  1842203
370
    80
100
AcDbVertex
100
AcDb2dVertex
 10
468.7306164081777
 20
-554.9205516216393
 30
0.0
  0
VERTEX
  5
231
330
22F
100
AcDbEntity
  8
Drawing
 62
   250
420
  1842203
370
    80
100
AcDbVertex
100
AcDb2dVertex
 10
466.7304752550119
 20
-554.9205516216393
 30
0.0
  0
SEQEND
  5
232
330
22F
100
AcDbEntity
  8
Drawing
 62
   250
420
  1842203
370
    80
  0
POLYLINE
  5
233
330
159
100
AcDbEntity
  8
Drawing
 62
   250
420
  1842203
370
    80
100
AcDb2dPolyline
 66
     1
 10
0.0
 20
0.0
 30
0.0
  0
VERTEX
  5
234
330
233
100
AcDbEntity
  8
Drawing
 62
   250
420
  1842203
370
    80
100
AcDbVertex
100
AcDb2dVertex
 10
466.7304752550119
 20
-552.9214703038266
 30
0.0
  0
VERTEX
  5
235
330
233
100
AcDbEntity
  8
Drawing
 62
   250
420
  1842203
370
    80
100
AcDbVertex
100
AcDb2dVertex
 10
468.7306164081777
 20
-552.9214703038266
 30
0.0
  0
SEQEND
  5
236
330
233
100
AcDbEntity
  8
Drawing
 62
   250
420
  1842203
370
    80
  0
POLYLINE
  5
237
330
159
100
AcDbEntity
  8
Drawing
 62
   250
420
  1842203
370
    80
100
AcDb2dPolyline
 66
     1
 10
0.0
 20
0.0
 30
0.0
  0
VERTEX
  5
238
330
237
100
AcDbEntity
  8
Drawing
 62
   250
420
  1842203
370
    80
100
AcDbVertex
100
AcDb2dVertex
 10
468.7306164081777
 20
-579.9208422026871
 30
0.0
  0
VERTEX
  5
239
330
237
100
AcDbEntity
  8
Drawing
 62
   250
420
  1842203
370
    80
100
AcDbVertex
100
AcDb2dVertex
 10
466.7304752550119
 20
-579.9208422026871
 30
0.0
  0
SEQEND
  5
23A
330
237
100
AcDbEntity
  8
Drawing
 62
   250
420
  1842203
370
    80
  0
POLYLINE
  5
23B
330
159
100
AcDbEntity
  8
Drawing
 62
   250
420
  1842203
370
    80
100
AcDb2dPolyline
 66
     1
 10
0.0
 20
0.0
 30
0.0
  0
VERTEX
  5
23C
330
23B
100
AcDbEntity
  8
Drawing
 62
   250
420
  1842203
370
    80
100
AcDbVertex
100
AcDb2dVertex
 10
466.7304752550119
 20
-577.9207010495201
 30
0.0
  0
VERTEX
  5
23D
330
23B
100
AcDbEntity
  8
Drawing
 62
   250
420
  1842203
370
    80
100
AcDbVertex
100
AcDb2dVertex
 10
468.7306164081777
 20
-577.9207010495201
 30
0.0
  0
SEQEND
  5
23E
330
23B
100
AcDbEntity
  8
Drawing
 62
   250
420
  1842203
370
    80
  0
POLYLINE
  5
23F
330
159
100
AcDbEntity
  8
Drawing
 62
   250
420
  1842203
370
    80
100
AcDb2dPolyline
 66
     1
 10
0.0
 20
0.0
 30
0.0
  0
VERTEX
  5
240
330
23F
100
AcDbEntity
  8
Drawing
 62
   250
420
  1842203
370
    80
100
AcDbVertex
100
AcDb2dVertex
 10
468.7306164081777
 20
-604.9211493436618
 30
0.0
  0
VERTEX
  5
241
330
23F
100
AcDbEntity
  8
Drawing
 62
   250
420
  1842203
370
    80
100
AcDbVertex
100
AcDb2dVertex
 10
466.7304752550119
 20
-604.9211493436618
 30
0.0
  0
SEQEND
  5
242
330
23F
100
AcDbEntity
  8
Drawing
 62
   250
420
  1842203
370
    80
  0
POLYLINE
  5
243
330
159
100
AcDbEntity
  8
Drawing
 62
   250
420
  1842203
370
    80
100
AcDb2dPolyline
 66
     1
 10
0.0
 20
0.0
 30
0.0
  0
VERTEX
  5
244
330
243
100
AcDbEntity
  8
Drawing
 62
   250
420
  1842203
370
    80
100
AcDbVertex
100
AcDb2dVertex
 10
466.7304752550119
 20
-602.920991630568
 30
0.0
  0
VERTEX
  5
245
330
243
100
AcDbEntity
  8
Drawing
 62
   250
420
  1842203
370
    80
100
AcDbVertex
100
AcDb2dVertex
 10
468.7306164081777
 20
-602.920991630568
 30
0.0
  0
SEQEND
  5
246
330
243
100
AcDbEntity
  8
Drawing
 62
   250
420
  1842203
370
    80
  0
POLYLINE
  5
247
330
159
100
AcDbEntity
  8
Drawing
 62
   250
420
  1842203
370
    80
100
AcDb2dPolyline
 66
     1
 10
0.0
 20
0.0
 30
0.0
  0
VERTEX
  5
248
330
247
100
AcDbEntity
  8
Drawing
 62
   250
420
  1842203
370
    80
100
AcDbVertex
100
AcDb2dVertex
 10
466.7302434160292
 20
-477.9207310401031
 30
0.0
  0
VERTEX
  5
249
330
247
100
AcDbEntity
  8
Drawing
 62
   250
420
  1842203
370
    80
100
AcDbVertex
100
AcDb2dVertex
 10
468.730401129123
 20
-477.9207310401031
 30
0.0
  0
SEQEND
  5
24A
330
247
100
AcDbEntity
  8
Drawing
 62
   250
420
  1842203
370
    80
  0
POLYLINE
  5
24B
330
159
100
AcDbEntity
  8
Drawing
 62
   250
420
  1842203
370
    80
100
AcDb2dPolyline
 66
     1
 10
0.0
 20
0.0
 30
0.0
  0
VERTEX
  5
24C
330
24B
100
AcDbEntity
  8
Drawing
 62
   250
420
  1842203
370
    80
100
AcDbVertex
100
AcDb2dVertex
 10
468.730401129123
 20
-479.9208721932695
 30
0.0
  0
VERTEX
  5
24D
330
24B
100
AcDbEntity
  8
Drawing
 62
   250
420
  1842203
370
    80
100
AcDbVertex
100
AcDb2dVertex
 10
466.7302434160292
 20
-479.9208721932695
 30
0.0
  0
SEQEND
  5
24E
330
24B
100
AcDbEntity
  8
Drawing
 62
   250
420
  1842203
370
    80
  0
POLYLINE
  5
24F
330
159
100
AcDbEntity
  8
Drawing
 62
   250
420
  1842203
370
    80
100
AcDb2dPolyline
 66
     1
 10
0.0
 20
0.0
 30
0.0
  0
VERTEX
  5
250
330
24F
100
AcDbEntity
  8
Drawing
 62
   250
420
  1842203
370
    80
100
AcDbVertex
100
AcDb2dVertex
 10
491.7304511974411
 20
-477.9205323209738
 30
0.0
  0
VERTEX
  5
251
330
24F
100
AcDbEntity
  8
Drawing
 62
   250
420
  1842203
370
    80
100
AcDbVertex
100
AcDb2dVertex
 10
493.7305923506063
 20
-477.9205323209738
 30
0.0
  0
SEQEND
  5
252
330
24F
100
AcDbEntity
  8
Drawing
 62
   250
420
  1842203
370
    80
  0
POLYLINE
  5
253
330
159
100
AcDbEntity
  8
Drawing
 62
   250
420
  1842203
370
    80
100
AcDb2dPolyline
 66
     1
 10
0.0
 20
0.0
 30
0.0
  0
VERTEX
  5
254
330
253
100
AcDbEntity
  8
Drawing
 62
   250
420
  1842203
370
    80
100
AcDbVertex
100
AcDb2dVertex
 10
493.7305923506063
 20
-479.9206734741409
 30
0.0
  0
VERTEX
  5
255
330
253
100
AcDbEntity
  8
Drawing
 62
   250
420
  1842203
370
    80
100
AcDbVertex
100
AcDb2dVertex
 10
491.7304511974411
 20
-479.9206734741409
 30
0.0
  0
SEQEND
  5
256
330
253
100
AcDbEntity
  8
Drawing
 62
   250
420
  1842203
370
    80
  0
POLYLINE
  5
257
330
159
100
AcDbEntity
  8
Drawing
 62
   250
420
  1842203
370
    80
100
AcDb2dPolyline
 66
     1
 10
0.0
 20
0.0
 30
0.0
  0
VERTEX
  5
258
330
257
100
AcDbEntity
  8
Drawing
 62
   250
420
  1842203
370
    80
100
AcDbVertex
100
AcDb2dVertex
 10
493.7305923506063
 20
-477.9205323209738
 30
0.0
  0
VERTEX
  5
259
330
257
100
AcDbEntity
  8
Drawing
 62
   250
420
  1842203
370
    80
100
AcDbVertex
100
AcDb2dVertex
 10
493.7305923506063
 20
-459.4209737265213
 30
0.0
  0
VERTEX
  5
25A
330
257
100
AcDbEntity
  8
Drawing
 62
   250
420
  1842203
370
    80
100
AcDbVertex
100
AcDb2dVertex
 10
491.7304511974411
 20
-459.4209737265213
 30
0.0
  0
SEQEND
  5
25B
330
257
100
AcDbEntity
  8
Drawing
 62
   250
420
  1842203
370
    80
  0
POLYLINE
  5
25C
330
159
100
AcDbEntity
  8
Drawing
 62
   250
420
  1842203
370
    80
100
AcDb2dPolyline
 66
     1
 10
0.0
 20
0.0
 30
0.0
  0
VERTEX
  5
25D
330
25C
100
AcDbEntity
  8
Drawing
 62
   250
420
  1842203
370
    80
100
AcDbVertex
100
AcDb2dVertex
 10
491.7304511974411
 20
-459.4209737265213
 30
0.0
  0
VERTEX
  5
25E
330
25C
100
AcDbEntity
  8
Drawing
 62
   250
420
  1842203
370
    80
100
AcDbVertex
100
AcDb2dVertex
 10
491.7304511974411
 20
-477.9205323209738
 30
0.0
  0
SEQEND
  5
25F
330
25C
100
AcDbEntity
  8
Drawing
 62
   250
420
  1842203
370
    80
  0
POLYLINE
  5
260
330
159
100
AcDbEntity
  8
Drawing
 62
   250
420
  1842203
370
    80
100
AcDb2dPolyline
 66
     1
 10
0.0
 20
0.0
 30
0.0
  0
VERTEX
  5
261
330
260
100
AcDbEntity
  8
Drawing
 62
   250
420
  1842203
370
    80
100
AcDbVertex
100
AcDb2dVertex
 10
491.7304511974411
 20
-604.9211493436618
 30
0.0
  0
VERTEX
  5
262
330
260
100
AcDbEntity
  8
Drawing
 62
   250
420
  1842203
370
    80
100
AcDbVertex
100
AcDb2dVertex
 10
491.7304511974411
 20
-623.420691378187
 30
0.0
  0
VERTEX
  5
263
330
260
100
AcDbEntity
  8
Drawing
 62
   250
420
  1842203
370
    80
100
AcDbVertex
100
AcDb2dVertex
 10
493.7305923506063
 20
-623.420691378187
 30
0.0
  0
VERTEX
  5
264
330
260
100
AcDbEntity
  8
Drawing
 62
   250
420
  1842203
370
    80
100
AcDbVertex
100
AcDb2dVertex
 10
493.7305923506063
 20
-604.9211493436618
 30
0.0
  0
SEQEND
  5
265
330
260
100
AcDbEntity
  8
Drawing
 62
   250
420
  1842203
370
    80
  0
POLYLINE
  5
266
330
159
100
AcDbEntity
  8
Drawing
 62
   250
420
  1842203
370
    80
100
AcDb2dPolyline
 66
     1
 10
0.0
 20
0.0
 30
0.0
  0
VERTEX
  5
267
330
266
100
AcDbEntity
  8
Drawing
 62
   250
420
  1842203
370
    80
100
AcDbVertex
100
AcDb2dVertex
 10
491.7304511974411
 20
-579.9208422026871
 30
0.0
  0
VERTEX
  5
268
330
266
100
AcDbEntity
  8
Drawing
 62
   250
420
  1842203
370
    80
100
AcDbVertex
100
AcDb2dVertex
 10
491.7304511974411
 20
-602.920991630568
 30
0.0
  0
SEQEND
  5
269
330
266
100
AcDbEntity
  8
Drawing
 62
   250
420
  1842203
370
    80
  0
POLYLINE
  5
26A
330
159
100
AcDbEntity
  8
Drawing
 62
   250
420
  1842203
370
    80
100
AcDb2dPolyline
 66
     1
 10
0.0
 20
0.0
 30
0.0
  0
VERTEX
  5
26B
330
26A
100
AcDbEntity
  8
Drawing
 62
   250
420
  1842203
370
    80
100
AcDbVertex
100
AcDb2dVertex
 10
493.7305923506063
 20
-602.920991630568
 30
0.0
  0
VERTEX
  5
26C
330
26A
100
AcDbEntity
  8
Drawing
 62
   250
420
  1842203
370
    80
100
AcDbVertex
100
AcDb2dVertex
 10
493.7305923506063
 20
-579.9208422026871
 30
0.0
  0
SEQEND
  5
26D
330
26A
100
AcDbEntity
  8
Drawing
 62
   250
420
  1842203
370
    80
  0
POLYLINE
  5
26E
330
159
100
AcDbEntity
  8
Drawing
 62
   250
420
  1842203
370
    80
100
AcDb2dPolyline
 66
     1
 10
0.0
 20
0.0
 30
0.0
  0
VERTEX
  5
26F
330
26E
100
AcDbEntity
  8
Drawing
 62
   250
420
  1842203
370
    80
100
AcDbVertex
100
AcDb2dVertex
 10
491.7304511974411
 20
-554.9205516216393
 30
0.0
  0
VERTEX
  5
270
330
26E
100
AcDbEntity
  8
Drawing
 62
   250
420
  1842203
370
    80
100
AcDbVertex
100
AcDb2dVertex
 10
491.7304511974411
 20
-577.9207010495201
 30
0.0
  0
SEQEND
  5
271
330
26E
100
AcDbEntity
  8
Drawing
 62
   250
420
  1842203
370
    80
  0
POLYLINE
  5
272
330
159
100
AcDbEntity
  8
Drawing
 62
   250
420
  1842203
370
    80
100
AcDb2dPolyline
 66
     1
 10
0.0
 20
0.0
 30
0.0
  0
VERTEX
  5
273
330
272
100
AcDbEntity
  8
Drawing
 62
   250
420
  1842203
370
    80
100
AcDbVertex
100
AcDb2dVertex
 10
493.7305923506063
 20
-577.9207010495201
 30
0.0
  0
VERTEX
  5
274
330
272
100
AcDbEntity
  8
Drawing
 62
   250
420
  1842203
370
    80
100
AcDbVertex
100
AcDb2dVertex
 10
493.7305923506063
 20
-554.9205516216393
 30
0.0
  0
SEQEND
  5
275
330
272
100
AcDbEntity
  8
Drawing
 62
   250
420
  1842203
370
    80
  0
POLYLINE
  5
276
330
159
100
AcDbEntity
  8
Drawing
 62
   250
420
  1842203
370
    80
100
AcDb2dPolyline
 66
     1
 10
0.0
 20
0.0
 30
0.0
  0
VERTEX
  5
277
330
276
100
AcDbEntity
  8
Drawing
 62
   250
420
  1842203
370
    80
100
AcDbVertex
100
AcDb2dVertex
 10
491.7304511974411
 20
-529.9213208759464
 30
0.0
  0
VERTEX
  5
278
330
276
100
AcDbEntity
  8
Drawing
 62
   250
420
  1842203
370
    80
100
AcDbVertex
100
AcDb2dVertex
 10
491.7304511974411
 20
-552.9214703038266
 30
0.0
  0
SEQEND
  5
279
330
276
100
AcDbEntity
  8
Drawing
 62
   250
420
  1842203
370
    80
  0
POLYLINE
  5
27A
330
159
100
AcDbEntity
  8
Drawing
 62
   250
420
  1842203
370
    80
100
AcDb2dPolyline
 66
     1
 10
0.0
 20
0.0
 30
0.0
  0
VERTEX
  5
27B
330
27A
100
AcDbEntity
  8
Drawing
 62
   250
420
  1842203
370
    80
100
AcDbVertex
100
AcDb2dVertex
 10
493.7305923506063
 20
-552.9214703038266
 30
0.0
  0
VERTEX
  5
27C
330
27A
100
AcDbEntity
  8
Drawing
 62
   250
420
  1842203
370
    80
100
AcDbVertex
100
AcDb2dVertex
 10
493.7305923506063
 20
-529.9213208759464
 30
0.0
  0
SEQEND
  5
27D
330
27A
100
AcDbEntity
  8
Drawing
 62
   250
420
  1842203
370
    80
  0
POLYLINE
  5
27E
330
159
100
AcDbEntity
  8
Drawing
 62
   250
420
  1842203
370
    80
100
AcDb2dPolyline
 66
     1
 10
0.0
 20
0.0
 30
0.0
  0
VERTEX
  5
27F
330
27E
100
AcDbEntity
  8
Drawing
 62
   250
420
  1842203
370
    80
100
AcDbVertex
100
AcDb2dVertex
 10
491.7304511974411
 20
-504.9209971750438
 30
0.0
  0
VERTEX
  5
280
330
27E
100
AcDbEntity
  8
Drawing
 62
   250
420
  1842203
370
    80
100
AcDbVertex
100
AcDb2dVertex
 10
491.7304511974411
 20
-527.921146602924
 30
0.0
  0
SEQEND
  5
281
330
27E
100
AcDbEntity
  8
Drawing
 62
   250
420
  1842203
370
    80
  0
POLYLINE
  5
282
330
159
100
AcDbEntity
  8
Drawing
 62
   250
420
  1842203
370
    80
100
AcDb2dPolyline
 66
     1
 10
0.0
 20
0.0
 30
0.0
  0
VERTEX
  5
283
330
282
100
AcDbEntity
  8
Drawing
 62
   250
420
  1842203
370
    80
100
AcDbVertex
100
AcDb2dVertex
 10
493.7305923506063
 20
-527.921146602924
 30
0.0
  0
VERTEX
  5
284
330
282
100
AcDbEntity
  8
Drawing
 62
   250
420
  1842203
370
    80
100
AcDbVertex
100
AcDb2dVertex
 10
493.7305923506063
 20
-504.9209971750438
 30
0.0
  0
SEQEND
  5
285
330
282
100
AcDbEntity
  8
Drawing
 62
   250
420
  1842203
370
    80
  0
POLYLINE
  5
286
330
159
100
AcDbEntity
  8
Drawing
 62
   250
420
  1842203
370
    80
100
AcDb2dPolyline
 66
     1
 10
0.0
 20
0.0
 30
0.0
  0
VERTEX
  5
287
330
286
100
AcDbEntity
  8
Drawing
 62
   250
420
  1842203
370
    80
100
AcDbVertex
100
AcDb2dVertex
 10
491.7304511974411
 20
-479.9206734741409
 30
0.0
  0
VERTEX
  5
288
330
286
100
AcDbEntity
  8
Drawing
 62
   250
420
  1842203
370
    80
100
AcDbVertex
100
AcDb2dVertex
 10
491.7304511974411
 20
-502.9208560218767
 30
0.0
  0
SEQEND
  5
289
330
286
100
AcDbEntity
  8
Drawing
 62
   250
420
  1842203
370
    80
  0
POLYLINE
  5
28A
330
159
100
AcDbEntity
  8
Drawing
 62
   250
420
  1842203
370
    80
100
AcDb2dPolyline
 66
     1
 10
0.0
 20
0.0
 30
0.0
  0
VERTEX
  5
28B
330
28A
100
AcDbEntity
  8
Drawing
 62
   250
420
  1842203
370
    80
100
AcDbVertex
100
AcDb2dVertex
 10
493.7305923506063
 20
-502.9208560218767
 30
0.0
  0
VERTEX
  5
28C
330
28A
100
AcDbEntity
  8
Drawing
 62
   250
420
  1842203
370
    80
100
AcDbVertex
100
AcDb2dVertex
 10
493.7305923506063
 20
-479.9206734741409
 30
0.0
  0
SEQEND
  5
28D
330
28A
100
AcDbEntity
  8
Drawing
 62
   250
420
  1842203
370
    80
  0
POLYLINE
  5
28E
330
159
100
AcDbEntity
  8
Drawing
 62
   250
420
  1842203
370
    80
100
AcDb2dPolyline
 66
     1
 10
0.0
 20
0.0
 30
0.0
  0
VERTEX
  5
28F
330
28E
100
AcDbEntity
  8
Drawing
 62
   250
420
  1842203
370
    80
100
AcDbVertex
100
AcDb2dVertex
 10
493.7305923506063
 20
-504.9209971750438
 30
0.0
  0
VERTEX
  5
290
330
28E
100
AcDbEntity
  8
Drawing
 62
   250
420
  1842203
370
    80
100
AcDbVertex
100
AcDb2dVertex
 10
491.7304511974411
 20
-504.9209971750438
 30
0.0
  0
SEQEND
  5
291
330
28E
100
AcDbEntity
  8
Drawing
 62
   250
420
  1842203
370
    80
  0
POLYLINE
  5
292
330
159
100
AcDbEntity
  8
Drawing
 62
   250
420
  1842203
370
    80
100
AcDb2dPolyline
 66
     1
 10
0.0
 20
0.0
 30
0.0
  0
VERTEX
  5
293
330
292
100
AcDbEntity
  8
Drawing
 62
   250
420
  1842203
370
    80
100
AcDbVertex
100
AcDb2dVertex
 10
491.7304511974411
 20
-502.9208560218767
 30
0.0
  0
VERTEX
  5
294
330
292
100
AcDbEntity
  8
Drawing
 62
   250
420
  1842203
370
    80
100
AcDbVertex
100
AcDb2dVertex
 10
493.7305923506063
 20
-502.9208560218767
 30
0.0
  0
SEQEND
  5
295
330
292
100
AcDbEntity
  8
Drawing
 62
   250
420
  1842203
370
    80
  0
POLYLINE
  5
296
330
159
100
AcDbEntity
  8
Drawing
 62
   250
420
  1842203
370
    80
100
AcDb2dPolyline
 66
     1
 10
0.0
 20
0.0
 30
0.0
  0
VERTEX
  5
297
330
296
100
AcDbEntity
  8
Drawing
 62
   250
420
  1842203
370
    80
100
AcDbVertex
100
AcDb2dVertex
 10
493.7305923506063
 20
-529.9213208759464
 30
0.0
  0
VERTEX
  5
298
330
296
100
AcDbEntity
  8
Drawing
 62
   250
420
  1842203
370
    80
100
AcDbVertex
100
AcDb2dVertex
 10
491.7304511974411
 20
-529.9213208759464
 30
0.0
  0
SEQEND
  5
299
330
296
100
AcDbEntity
  8
Drawing
 62
   250
420
  1842203
370
    80
  0
POLYLINE
  5
29A
330
159
100
AcDbEntity
  8
Drawing
 62
   250
420
  1842203
370
    80
100
AcDb2dPolyline
 66
     1
 10
0.0
 20
0.0
 30
0.0
  0
VERTEX
  5
29B
330
29A
100
AcDbEntity
  8
Drawing
 62
   250
420
  1842203
370
    80
100
AcDbVertex
100
AcDb2dVertex
 10
491.7304511974411
 20
-527.921146602924
 30
0.0
  0
VERTEX
  5
29C
330
29A
100
AcDbEntity
  8
Drawing
 62
   250
420
  1842203
370
    80
100
AcDbVertex
100
AcDb2dVertex
 10
493.7305923506063
 20
-527.921146602924
 30
0.0
  0
SEQEND
  5
29D
330
29A
100
AcDbEntity
  8
Drawing
 62
   250
420
  1842203
370
    80
  0
POLYLINE
  5
29E
330
159
100
AcDbEntity
  8
Drawing
 62
   250
420
  1842203
370
    80
100
AcDb2dPolyline
 66
     1
 10
0.0
 20
0.0
 30
0.0
  0
VERTEX
  5
29F
330
29E
100
AcDbEntity
  8
Drawing
 62
   250
420
  1842203
370
    80
100
AcDbVertex
100
AcDb2dVertex
 10
493.7305923506063
 20
-554.9205516216393
 30
0.0
  0
VERTEX
  5
2A0
330
29E
100
AcDbEntity
  8
Drawing
 62
   250
420
  1842203
370
    80
100
AcDbVertex
100
AcDb2dVertex
 10
491.7304511974411
 20
-554.9205516216393
 30
0.0
  0
SEQEND
  5
2A1
330
29E
100
AcDbEntity
  8
Drawing
 62
   250
420
  1842203
370
    80
  0
POLYLINE
  5
2A2
330
159
100
AcDbEntity
  8
Drawing
 62
   250
420
  1842203
370
    80
100
AcDb2dPolyline
 66
     1
 10
0.0
 20
0.0
 30
0.0
  0
VERTEX
  5
2A3
330
2A2
100
AcDbEntity
  8
Drawing
 62
   250
420
  1842203
370
    80
100
AcDbVertex
100
AcDb2dVertex
 10
491.7304511974411
 20
-552.9214703038266
 30
0.0
  0
VERTEX
  5
2A4
330
2A2
100
AcDbEntity
  8
Drawing
 62
   250
420
  1842203
370
    80
100
AcDbVertex
100
AcDb2dVertex
 10
493.7305923506063
 20
-552.9214703038266
 30
0.0
  0
SEQEND
  5
2A5
330
2A2
100
AcDbEntity
  8
Drawing
 62
   250
420
  1842203
370
    80
  0
POLYLINE
  5
2A6
330
159
100
AcDbEntity
  8
Drawing
 62
   250
420
  1842203
370
    80
100
AcDb2dPolyline
 66
     1
 10
0.0
 20
0.0
 30
0.0
  0
VERTEX
  5
2A7
330
2A6
100
AcDbEntity
  8
Drawing
 62
   250
420
  1842203
370
    80
100
AcDbVertex
100
AcDb2dVertex
 10
493.7305923506063
 20
-579.9208422026871
 30
0.0
  0
VERTEX
  5
2A8
330
2A6
100
AcDbEntity
  8
Drawing
 62
   250
420
  1842203
370
    80
100
AcDbVertex
100
AcDb2dVertex
 10
491.7304511974411
 20
-579.9208422026871
 30
0.0
  0
SEQEND
  5
2A9
330
2A6
100
AcDbEntity
  8
Drawing
 62
   250
420
  1842203
370
    80
  0
POLYLINE
  5
2AA
330
159
100
AcDbEntity
  8
Drawing
 62
   250
420
  1842203
370
    80
100
AcDb2dPolyline
 66
     1
 10
0.0
 20
0.0
 30
0.0
  0
VERTEX
  5
2AB
330
2AA
100
AcDbEntity
  8
Drawing
 62
   250
420
  1842203
370
    80
100
AcDbVertex
100
AcDb2dVertex
 10
491.7304511974411
 20
-577.9207010495201
 30
0.0
  0
VERTEX
  5
2AC
330
2AA
100
AcDbEntity
  8
Drawing
 62
   250
420
  1842203
370
    80
100
AcDbVertex
100
AcDb2dVertex
 10
493.7305923506063
 20
-577.9207010495201
 30
0.0
  0
SEQEND
  5
2AD
330
2AA
100
AcDbEntity
  8
Drawing
 62
   250
420
  1842203
370
    80
  0
POLYLINE
  5
2AE
330
159
100
AcDbEntity
  8
Drawing
 62
   250
420
  1842203
370
    80
100
AcDb2dPolyline
 66
     1
 10
0.0
 20
0.0
 30
0.0
  0
VERTEX
  5
2AF
330
2AE
100
AcDbEntity
  8
Drawing
 62
   250
420
  1842203
370
    80
100
AcDbVertex
100
AcDb2dVertex
 10
493.7305923506063
 20
-604.9211493436618
 30
0.0
  0
VERTEX
  5
2B0
330
2AE
100
AcDbEntity
  8
Drawing
 62
   250
420
  1842203
370
    80
100
AcDbVertex
100
AcDb2dVertex
 10
491.7304511974411
 20
-604.9211493436618
 30
0.0
  0
SEQEND
  5
2B1
330
2AE
100
AcDbEntity
  8
Drawing
 62
   250
420
  1842203
370
    80
  0
POLYLINE
  5
2B2
330
159
100
AcDbEntity
  8
Drawing
 62
   250
420
  1842203
370
    80
100
AcDb2dPolyline
 66
     1
 10
0.0
 20
0.0
 30
0.0
  0
VERTEX
  5
2B3
330
2B2
100
AcDbEntity
  8
Drawing
 62
   250
420
  1842203
370
    80
100
AcDbVertex
100
AcDb2dVertex
 10
491.7304511974411
 20
-602.920991630568
 30
0.0
  0
VERTEX
  5
2B4
330
2B2
100
AcDbEntity
  8
Drawing
 62
   250
420
  1842203
370
    80
100
AcDbVertex
100
AcDb2dVertex
 10
493.7305923506063
 20
-602.920991630568
 30
0.0
  0
SEQEND
  5
2B5
330
2B2
100
AcDbEntity
  8
Drawing
 62
   250
420
  1842203
370
    80
  0
POLYLINE
  5
2B6
330
159
100
AcDbEntity
  8
Drawing
 62
   250
420
  1842203
370
    80
100
AcDb2dPolyline
 66
     1
 10
0.0
 20
0.0
 30
0.0
  0
VERTEX
  5
2B7
330
2B6
100
AcDbEntity
  8
Drawing
 62
   250
420
  1842203
370
    80
100
AcDbVertex
100
AcDb2dVertex
 10
516.7304436997952
 20
-477.9205323209738
 30
0.0
  0
VERTEX
  5
2B8
330
2B6
100
AcDbEntity
  8
Drawing
 62
   250
420
  1842203
370
    80
100
AcDbVertex
100
AcDb2dVertex
 10
518.7305848529603
 20
-477.9205323209738
 30
0.0
  0
SEQEND
  5
2B9
330
2B6
100
AcDbEntity
  8
Drawing
 62
   250
420
  1842203
370
    80
  0
POLYLINE
  5
2BA
330
159
100
AcDbEntity
  8
Drawing
 62
   250
420
  1842203
370
    80
100
AcDb2dPolyline
 66
     1
 10
0.0
 20
0.0
 30
0.0
  0
VERTEX
  5
2BB
330
2BA
100
AcDbEntity
  8
Drawing
 62
   250
420
  1842203
370
    80
100
AcDbVertex
100
AcDb2dVertex
 10
518.7305848529603
 20
-479.9206734741409
 30
0.0
  0
VERTEX
  5
2BC
330
2BA
100
AcDbEntity
  8
Drawing
 62
   250
420
  1842203
370
    80
100
AcDbVertex
100
AcDb2dVertex
 10
516.7304436997952
 20
-479.9206734741409
 30
0.0
  0
SEQEND
  5
2BD
330
2BA
100
AcDbEntity
  8
Drawing
 62
   250
420
  1842203
370
    80
  0
POLYLINE
  5
2BE
330
159
100
AcDbEntity
  8
Drawing
 62
   250
420
  1842203
370
    80
100
AcDb2dPolyline
 66
     1
 10
0.0
 20
0.0
 30
0.0
  0
VERTEX
  5
2BF
330
2BE
100
AcDbEntity
  8
Drawing
 62
   250
420
  1842203
370
    80
100
AcDbVertex
100
AcDb2dVertex
 10
518.7305848529603
 20
-477.9205323209738
 30
0.0
  0
VERTEX
  5
2C0
330
2BE
100
AcDbEntity
  8
Drawing
 62
   250
420
  1842203
370
    80
100
AcDbVertex
100
AcDb2dVertex
 10
518.7305848529603
 20
-459.4209737265213
 30
0.0
  0
VERTEX
  5
2C1
330
2BE
100
AcDbEntity
  8
Drawing
 62
   250
420
  1842203
370
    80
100
AcDbVertex
100
AcDb2dVertex
 10
516.7304436997952
 20
-459.4209737265213
 30
0.0
  0
SEQEND
  5
2C2
330
2BE
100
AcDbEntity
  8
Drawing
 62
   250
420
  1842203
370
    80
  0
POLYLINE
  5
2C3
330
159
100
AcDbEntity
  8
Drawing
 62
   250
420
  1842203
370
    80
100
AcDb2dPolyline
 66
     1
 10
0.0
 20
0.0
 30
0.0
  0
VERTEX
  5
2C4
330
2C3
100
AcDbEntity
  8
Drawing
 62
   250
420
  1842203
370
    80
100
AcDbVertex
100
AcDb2dVertex
 10
516.7304436997952
 20
-459.4209737265213
 30
0.0
  0
VERTEX
  5
2C5
330
2C3
100
AcDbEntity
  8
Drawing
 62
   250
420
  1842203
370
    80
100
AcDbVertex
100
AcDb2dVertex
 10
516.7304436997952
 20
-477.9205323209738
 30
0.0
  0
SEQEND
  5
2C6
330
2C3
100
AcDbEntity
  8
Drawing
 62
   250
420
  1842203
370
    80
  0
POLYLINE
  5
2C7
330
159
100
AcDbEntity
  8
Drawing
 62
   250
420
  1842203
370
    80
100
AcDb2dPolyline
 66
     1
 10
0.0
 20
0.0
 30
0.0
  0
VERTEX
  5
2C8
330
2C7
100
AcDbEntity
  8
Drawing
 62
   250
420
  1842203
370
    80
100
AcDbVertex
100
AcDb2dVertex
 10
516.7304436997952
 20
-604.9211493436618
 30
0.0
  0
VERTEX
  5
2C9
330
2C7
100
AcDbEntity
  8
Drawing
 62
   250
420
  1842203
370
    80
100
AcDbVertex
100
AcDb2dVertex
 10
516.7304436997952
 20
-623.420691378187
 30
0.0
  0
VERTEX
  5
2CA
330
2C7
100
AcDbEntity
  8
Drawing
 62
   250
420
  1842203
370
    80
100
AcDbVertex
100
AcDb2dVertex
 10
518.7305848529603
 20
-623.420691378187
 30
0.0
  0
VERTEX
  5
2CB
330
2C7
100
AcDbEntity
  8
Drawing
 62
   250
420
  1842203
370
    80
100
AcDbVertex
100
AcDb2dVertex
 10
518.7305848529603
 20
-604.9211493436618
 30
0.0
  0
SEQEND
  5
2CC
330
2C7
100
AcDbEntity
  8
Drawing
 62
   250
420
  1842203
370
    80
  0
POLYLINE
  5
2CD
330
159
100
AcDbEntity
  8
Drawing
 62
   250
420
  1842203
370
    80
100
AcDb2dPolyline
 66
     1
 10
0.0
 20
0.0
 30
0.0
  0
VERTEX
  5
2CE
330
2CD
100
AcDbEntity
  8
Drawing
 62
   250
420
  1842203
370
    80
100
AcDbVertex
100
AcDb2dVertex
 10
516.7304436997952
 20
-579.9208422026871
 30
0.0
  0
VERTEX
  5
2CF
330
2CD
100
AcDbEntity
  8
Drawing
 62
   250
420
  1842203
370
    80
100
AcDbVertex
100
AcDb2dVertex
 10
516.7304436997952
 20
-602.920991630568
 30
0.0
  0
SEQEND
  5
2D0
330
2CD
100
AcDbEntity
  8
Drawing
 62
   250
420
  1842203
370
    80
  0
POLYLINE
  5
2D1
330
159
100
AcDbEntity
  8
Drawing
 62
   250
420
  1842203
370
    80
100
AcDb2dPolyline
 66
     1
 10
0.0
 20
0.0
 30
0.0
  0
VERTEX
  5
2D2
330
2D1
100
AcDbEntity
  8
Drawing
 62
   250
420
  1842203
370
    80
100
AcDbVertex
100
AcDb2dVertex
 10
518.7305848529603
 20
-602.920991630568
 30
0.0
  0
VERTEX
  5
2D3
330
2D1
100
AcDbEntity
  8
Drawing
 62
   250
420
  1842203
370
    80
100
AcDbVertex
100
AcDb2dVertex
 10
518.7305848529603
 20
-579.9208422026871
 30
0.0
  0
SEQEND
  5
2D4
330
2D1
100
AcDbEntity
  8
Drawing
 62
   250
420
  1842203
370
    80
  0
POLYLINE
  5
2D5
330
159
100
AcDbEntity
  8
Drawing
 62
   250
420
  1842203
370
    80
100
AcDb2dPolyline
 66
     1
 10
0.0
 20
0.0
 30
0.0
  0
VERTEX
  5
2D6
330
2D5
100
AcDbEntity
  8
Drawing
 62
   250
420
  1842203
370
    80
100
AcDbVertex
100
AcDb2dVertex
 10
516.7304436997952
 20
-554.9205516216393
 30
0.0
  0
VERTEX
  5
2D7
330
2D5
100
AcDbEntity
  8
Drawing
 62
   250
420
  1842203
370
    80
100
AcDbVertex
100
AcDb2dVertex
 10
516.7304436997952
 20
-577.9207010495201
 30
0.0
  0
SEQEND
  5
2D8
330
2D5
100
AcDbEntity
  8
Drawing
 62
   250
420
  1842203
370
    80
  0
POLYLINE
  5
2D9
330
159
100
AcDbEntity
  8
Drawing
 62
   250
420
  1842203
370
    80
100
AcDb2dPolyline
 66
     1
 10
0.0
 20
0.0
 30
0.0
  0
VERTEX
  5
2DA
330
2D9
100
AcDbEntity
  8
Drawing
 62
   250
420
  1842203
370
    80
100
AcDbVertex
100
AcDb2dVertex
 10
518.7305848529603
 20
-577.9207010495201
 30
0.0
  0
VERTEX
  5
2DB
330
2D9
100
AcDbEntity
  8
Drawing
 62
   250
420
  1842203
370
    80
100
AcDbVertex
100
AcDb2dVertex
 10
518.7305848529603
 20
-554.9205516216393
 30
0.0
  0
SEQEND
  5
2DC
330
2D9
100
AcDbEntity
  8
Drawing
 62
   250
420
  1842203
370
    80
  0
POLYLINE
  5
2DD
330
159
100
AcDbEntity
  8
Drawing
 62
   250
420
  1842203
370
    80
100
AcDb2dPolyline
 66
     1
 10
0.0
 20
0.0
 30
0.0
  0
VERTEX
  5
2DE
330
2DD
100
AcDbEntity
  8
Drawing
 62
   250
420
  1842203
370
    80
100
AcDbVertex
100
AcDb2dVertex
 10
516.7304436997952
 20
-529.9213208759464
 30
0.0
  0
VERTEX
  5
2DF
330
2DD
100
AcDbEntity
  8
Drawing
 62
   250
420
  1842203
370
    80
100
AcDbVertex
100
AcDb2dVertex
 10
516.7304436997952
 20
-552.9214703038266
 30
0.0
  0
SEQEND
  5
2E0
330
2DD
100
AcDbEntity
  8
Drawing
 62
   250
420
  1842203
370
    80
  0
POLYLINE
  5
2E1
330
159
100
AcDbEntity
  8
Drawing
 62
   250
420
  1842203
370
    80
100
AcDb2dPolyline
 66
     1
 10
0.0
 20
0.0
 30
0.0
  0
VERTEX
  5
2E2
330
2E1
100
AcDbEntity
  8
Drawing
 62
   250
420
  1842203
370
    80
100
AcDbVertex
100
AcDb2dVertex
 10
518.7305848529603
 20
-552.9214703038266
 30
0.0
  0
VERTEX
  5
2E3
330
2E1
100
AcDbEntity
  8
Drawing
 62
   250
420
  1842203
370
    80
100
AcDbVertex
100
AcDb2dVertex
 10
518.7305848529603
 20
-529.9213208759464
 30
0.0
  0
SEQEND
  5
2E4
330
2E1
100
AcDbEntity
  8
Drawing
 62
   250
420
  1842203
370
    80
  0
POLYLINE
  5
2E5
330
159
100
AcDbEntity
  8
Drawing
 62
   250
420
  1842203
370
    80
100
AcDb2dPolyline
 66
     1
 10
0.0
 20
0.0
 30
0.0
  0
VERTEX
  5
2E6
330
2E5
100
AcDbEntity
  8
Drawing
 62
   250
420
  1842203
370
    80
100
AcDbVertex
100
AcDb2dVertex
 10
516.7304436997952
 20
-504.9209971750438
 30
0.0
  0
VERTEX
  5
2E7
330
2E5
100
AcDbEntity
  8
Drawing
 62
   250
420
  1842203
370
    80
100
AcDbVertex
100
AcDb2dVertex
 10
516.7304436997952
 20
-527.921146602924
 30
0.0
  0
SEQEND
  5
2E8
330
2E5
100
AcDbEntity
  8
Drawing
 62
   250
420
  1842203
370
    80
  0
POLYLINE
  5
2E9
330
159
100
AcDbEntity
  8
Drawing
 62
   250
420
  1842203
370
    80
100
AcDb2dPolyline
 66
     1
 10
0.0
 20
0.0
 30
0.0
  0
VERTEX
  5
2EA
330
2E9
100
AcDbEntity
  8
Drawing
 62
   250
420
  1842203
370
    80
100
AcDbVertex
100
AcDb2dVertex
 10
518.7305848529603
 20
-527.921146602924
 30
0.0
  0
VERTEX
  5
2EB
330
2E9
100
AcDbEntity
  8
Drawing
 62
   250
420
  1842203
370
    80
100
AcDbVertex
100
AcDb2dVertex
 10
518.7305848529603
 20
-504.9209971750438
 30
0.0
  0
SEQEND
  5
2EC
330
2E9
100
AcDbEntity
  8
Drawing
 62
   250
420
  1842203
370
    80
  0
POLYLINE
  5
2ED
330
159
100
AcDbEntity
  8
Drawing
 62
   250
420
  1842203
370
    80
100
AcDb2dPolyline
 66
     1
 10
0.0
 20
0.0
 30
0.0
  0
VERTEX
  5
2EE
330
2ED
100
AcDbEntity
  8
Drawing
 62
   250
420
  1842203
370
    80
100
AcDbVertex
100
AcDb2dVertex
 10
516.7304436997952
 20
-479.9206734741409
 30
0.0
  0
VERTEX
  5
2EF
330
2ED
100
AcDbEntity
  8
Drawing
 62
   250
420
  1842203
370
    80
100
AcDbVertex
100
AcDb2dVertex
 10
516.7304436997952
 20
-502.9208560218767
 30
0.0
  0
SEQEND
  5
2F0
330
2ED
100
AcDbEntity
  8
Drawing
 62
   250
420
  1842203
370
    80
  0
POLYLINE
  5
2F1
330
159
100
AcDbEntity
  8
Drawing
 62
   250
420
  1842203
370
    80
100
AcDb2dPolyline
 66
     1
 10
0.0
 20
0.0
 30
0.0
  0
VERTEX
  5
2F2
330
2F1
100
AcDbEntity
  8
Drawing
 62
   250
420
  1842203
370
    80
100
AcDbVertex
100
AcDb2dVertex
 10
518.7305848529603
 20
-502.9208560218767
 30
0.0
  0
VERTEX
  5
2F3
330
2F1
100
AcDbEntity
  8
Drawing
 62
   250
420
  1842203
370
    80
100
AcDbVertex
100
AcDb2dVertex
 10
518.7305848529603
 20
-479.9206734741409
 30
0.0
  0
SEQEND
  5
2F4
330
2F1
100
AcDbEntity
  8
Drawing
 62
   250
420
  1842203
370
    80
  0
POLYLINE
  5
2F5
330
159
100
AcDbEntity
  8
Drawing
 62
   250
420
  1842203
370
    80
100
AcDb2dPolyline
 66
     1
 10
0.0
 20
0.0
 30
0.0
  0
VERTEX
  5
2F6
330
2F5
100
AcDbEntity
  8
Drawing
 62
   250
420
  1842203
370
    80
100
AcDbVertex
100
AcDb2dVertex
 10
518.7305848529603
 20
-504.9209971750438
 30
0.0
  0
VERTEX
  5
2F7
330
2F5
100
AcDbEntity
  8
Drawing
 62
   250
420
  1842203
370
    80
100
AcDbVertex
100
AcDb2dVertex
 10
516.7304436997952
 20
-504.9209971750438
 30
0.0
  0
SEQEND
  5
2F8
330
2F5
100
AcDbEntity
  8
Drawing
 62
   250
420
  1842203
370
    80
  0
POLYLINE
  5
2F9
330
159
100
AcDbEntity
  8
Drawing
 62
   250
420
  1842203
370
    80
100
AcDb2dPolyline
 66
     1
 10
0.0
 20
0.0
 30
0.0
  0
VERTEX
  5
2FA
330
2F9
100
AcDbEntity
  8
Drawing
 62
   250
420
  1842203
370
    80
100
AcDbVertex
100
AcDb2dVertex
 10
516.7304436997952
 20
-502.9208560218767
 30
0.0
  0
VERTEX
  5
2FB
330
2F9
100
AcDbEntity
  8
Drawing
 62
   250
420
  1842203
370
    80
100
AcDbVertex
100
AcDb2dVertex
 10
518.7305848529603
 20
-502.9208560218767
 30
0.0
  0
SEQEND
  5
2FC
330
2F9
100
AcDbEntity
  8
Drawing
 62
   250
420
  1842203
370
    80
  0
POLYLINE
  5
2FD
330
159
100
AcDbEntity
  8
Drawing
 62
   250
420
  1842203
370
    80
100
AcDb2dPolyline
 66
     1
 10
0.0
 20
0.0
 30
0.0
  0
VERTEX
  5
2FE
330
2FD
100
AcDbEntity
  8
Drawing
 62
   250
420
  1842203
370
    80
100
AcDbVertex
100
AcDb2dVertex
 10
518.7305848529603
 20
-529.9213208759464
 30
0.0
  0
VERTEX
  5
2FF
330
2FD
100
AcDbEntity
  8
Drawing
 62
   250
420
  1842203
370
    80
100
AcDbVertex
100
AcDb2dVertex
 10
516.7304436997952
 20
-529.9213208759464
 30
0.0
  0
SEQEND
  5
300
330
2FD
100
AcDbEntity
  8
Drawing
 62
   250
420
  1842203
370
    80
  0
POLYLINE
  5
301
330
159
100
AcDbEntity
  8
Drawing
 62
   250
420
  1842203
370
    80
100
AcDb2dPolyline
 66
     1
 10
0.0
 20
0.0
 30
0.0
  0
VERTEX
  5
302
330
301
100
AcDbEntity
  8
Drawing
 62
   250
420
  1842203
370
    80
100
AcDbVertex
100
AcDb2dVertex
 10
516.7304436997952
 20
-527.921146602924
 30
0.0
  0
VERTEX
  5
303
330
301
100
AcDbEntity
  8
Drawing
 62
   250
420
  1842203
370
    80
100
AcDbVertex
100
AcDb2dVertex
 10
518.7305848529603
 20
-527.921146602924
 30
0.0
  0
SEQEND
  5
304
330
301
100
AcDbEntity
  8
Drawing
 62
   250
420
  1842203
370
    80
  0
POLYLINE
  5
305
330
159
100
AcDbEntity
  8
Drawing
 62
   250
420
  1842203
370
    80
100
AcDb2dPolyline
 66
     1
 10
0.0
 20
0.0
 30
0.0
  0
VERTEX
  5
306
330
305
100
AcDbEntity
  8
Drawing
 62
   250
420
  1842203
370
    80
100
AcDbVertex
100
AcDb2dVertex
 10
518.7305848529603
 20
-554.9205516216393
 30
0.0
  0
VERTEX
  5
307
330
305
100
AcDbEntity
  8
Drawing
 62
   250
420
  1842203
370
    80
100
AcDbVertex
100
AcDb2dVertex
 10
516.7304436997952
 20
-554.9205516216393
 30
0.0
  0
SEQEND
  5
308
330
305
100
AcDbEntity
  8
Drawing
 62
   250
420
  1842203
370
    80
  0
POLYLINE
  5
309
330
159
100
AcDbEntity
  8
Drawing
 62
   250
420
  1842203
370
    80
100
AcDb2dPolyline
 66
     1
 10
0.0
 20
0.0
 30
0.0
  0
VERTEX
  5
30A
330
309
100
AcDbEntity
  8
Drawing
 62
   250
420
  1842203
370
    80
100
AcDbVertex
100
AcDb2dVertex
 10
516.7304436997952
 20
-552.9214703038266
 30
0.0
  0
VERTEX
  5
30B
330
309
100
AcDbEntity
  8
Drawing
 62
   250
420
  1842203
370
    80
100
AcDbVertex
100
AcDb2dVertex
 10
518.7305848529603
 20
-552.9214703038266
 30
0.0
  0
SEQEND
  5
30C
330
309
100
AcDbEntity
  8
Drawing
 62
   250
420
  1842203
370
    80
  0
POLYLINE
  5
30D
330
159
100
AcDbEntity
  8
Drawing
 62
   250
420
  1842203
370
    80
100
AcDb2dPolyline
 66
     1
 10
0.0
 20
0.0
 30
0.0
  0
VERTEX
  5
30E
330
30D
100
AcDbEntity
  8
Drawing
 62
   250
420
  1842203
370
    80
100
AcDbVertex
100
AcDb2dVertex
 10
518.7305848529603
 20
-579.9208422026871
 30
0.0
  0
VERTEX
  5
30F
330
30D
100
AcDbEntity
  8
Drawing
 62
   250
420
  1842203
370
    80
100
AcDbVertex
100
AcDb2dVertex
 10
516.7304436997952
 20
-579.9208422026871
 30
0.0
  0
SEQEND
  5
310
330
30D
100
AcDbEntity
  8
Drawing
 62
   250
420
  1842203
370
    80
  0
POLYLINE
  5
311
330
159
100
AcDbEntity
  8
Drawing
 62
   250
420
  1842203
370
    80
100
AcDb2dPolyline
 66
     1
 10
0.0
 20
0.0
 30
0.0
  0
VERTEX
  5
312
330
311
100
AcDbEntity
  8
Drawing
 62
   250
420
  1842203
370
    80
100
AcDbVertex
100
AcDb2dVertex
 10
516.7304436997952
 20
-577.9207010495201
 30
0.0
  0
VERTEX
  5
313
330
311
100
AcDbEntity
  8
Drawing
 62
   250
420
  1842203
370
    80
100
AcDbVertex
100
AcDb2dVertex
 10
518.7305848529603
 20
-577.9207010495201
 30
0.0
  0
SEQEND
  5
314
330
311
100
AcDbEntity
  8
Drawing
 62
   250
420
  1842203
370
    80
  0
POLYLINE
  5
315
330
159
100
AcDbEntity
  8
Drawing
 62
   250
420
  1842203
370
    80
100
AcDb2dPolyline
 66
     1
 10
0.0
 20
0.0
 30
0.0
  0
VERTEX
  5
316
330
315
100
AcDbEntity
  8
Drawing
 62
   250
420
  1842203
370
    80
100
AcDbVertex
100
AcDb2dVertex
 10
518.7305848529603
 20
-604.9211493436618
 30
0.0
  0
VERTEX
  5
317
330
315
100
AcDbEntity
  8
Drawing
 62
   250
420
  1842203
370
    80
100
AcDbVertex
100
AcDb2dVertex
 10
516.7304436997952
 20
-604.9211493436618
 30
0.0
  0
SEQEND
  5
318
330
315
100
AcDbEntity
  8
Drawing
 62
   250
420
  1842203
370
    80
  0
POLYLINE
  5
319
330
159
100
AcDbEntity
  8
Drawing
 62
   250
420
  1842203
370
    80
100
AcDb2dPolyline
 66
     1
 10
0.0
 20
0.0
 30
0.0
  0
VERTEX
  5
31A
330
319
100
AcDbEntity
  8
Drawing
 62
   250
420
  1842203
370
    80
100
AcDbVertex
100
AcDb2dVertex
 10
516.7304436997952
 20
-602.920991630568
 30
0.0
  0
VERTEX
  5
31B
330
319
100
AcDbEntity
  8
Drawing
 62
   250
420
  1842203
370
    80
100
AcDbVertex
100
AcDb2dVertex
 10
518.7305848529603
 20
-602.920991630568
 30
0.0
  0
SEQEND
  5
31C
330
319
100
AcDbEntity
  8
Drawing
 62
   250
420
  1842203
370
    80
  0
POLYLINE
  5
31D
330
159
100
AcDbEntity
  8
Drawing
 62
   250
420
  1842203
370
    80
100
AcDb2dPolyline
 66
     1
 10
0.0
 20
0.0
 30
0.0
  0
VERTEX
  5
31E
330
31D
100
AcDbEntity
  8
Drawing
 62
   250
420
  1842203
370
    80
100
AcDbVertex
100
AcDb2dVertex
 10
541.7304362021486
 20
-477.9205323209738
 30
0.0
  0
VERTEX
  5
31F
330
31D
100
AcDbEntity
  8
Drawing
 62
   250
420
  1842203
370
    80
100
AcDbVertex
100
AcDb2dVertex
 10
543.7305773553144
 20
-477.9205323209738
 30
0.0
  0
SEQEND
  5
320
330
31D
100
AcDbEntity
  8
Drawing
 62
   250
420
  1842203
370
    80
  0
POLYLINE
  5
321
330
159
100
AcDbEntity
  8
Drawing
 62
   250
420
  1842203
370
    80
100
AcDb2dPolyline
 66
     1
 10
0.0
 20
0.0
 30
0.0
  0
VERTEX
  5
322
330
321
100
AcDbEntity
  8
Drawing
 62
   250
420
  1842203
370
    80
100
AcDbVertex
100
AcDb2dVertex
 10
543.7305773553144
 20
-479.9206734741409
 30
0.0
  0
VERTEX
  5
323
330
321
100
AcDbEntity
  8
Drawing
 62
   250
420
  1842203
370
    80
100
AcDbVertex
100
AcDb2dVertex
 10
541.7304362021486
 20
-479.9206734741409
 30
0.0
  0
SEQEND
  5
324
330
321
100
AcDbEntity
  8
Drawing
 62
   250
420
  1842203
370
    80
  0
POLYLINE
  5
325
330
159
100
AcDbEntity
  8
Drawing
 62
   250
420
  1842203
370
    80
100
AcDb2dPolyline
 66
     1
 10
0.0
 20
0.0
 30
0.0
  0
VERTEX
  5
326
330
325
100
AcDbEntity
  8
Drawing
 62
   250
420
  1842203
370
    80
100
AcDbVertex
100
AcDb2dVertex
 10
543.7305773553144
 20
-477.9205323209738
 30
0.0
  0
VERTEX
  5
327
330
325
100
AcDbEntity
  8
Drawing
 62
   250
420
  1842203
370
    80
100
AcDbVertex
100
AcDb2dVertex
 10
543.7305773553144
 20
-459.4209737265213
 30
0.0
  0
VERTEX
  5
328
330
325
100
AcDbEntity
  8
Drawing
 62
   250
420
  1842203
370
    80
100
AcDbVertex
100
AcDb2dVertex
 10
541.7304362021486
 20
-459.4209737265213
 30
0.0
  0
SEQEND
  5
329
330
325
100
AcDbEntity
  8
Drawing
 62
   250
420
  1842203
370
    80
  0
POLYLINE
  5
32A
330
159
100
AcDbEntity
  8
Drawing
 62
   250
420
  1842203
370
    80
100
AcDb2dPolyline
 66
     1
 10
0.0
 20
0.0
 30
0.0
  0
VERTEX
  5
32B
330
32A
100
AcDbEntity
  8
Drawing
 62
   250
420
  1842203
370
    80
100
AcDbVertex
100
AcDb2dVertex
 10
541.7304362021486
 20
-459.4209737265213
 30
0.0
  0
VERTEX
  5
32C
330
32A
100
AcDbEntity
  8
Drawing
 62
   250
420
  1842203
370
    80
100
AcDbVertex
100
AcDb2dVertex
 10
541.7304362021486
 20
-477.9205323209738
 30
0.0
  0
SEQEND
  5
32D
330
32A
100
AcDbEntity
  8
Drawing
 62
   250
420
  1842203
370
    80
  0
POLYLINE
  5
32E
330
159
100
AcDbEntity
  8
Drawing
 62
   250
420
  1842203
370
    80
100
AcDb2dPolyline
 66
     1
 10
0.0
 20
0.0
 30
0.0
  0
VERTEX
  5
32F
330
32E
100
AcDbEntity
  8
Drawing
 62
   250
420
  1842203
370
    80
100
AcDbVertex
100
AcDb2dVertex
 10
541.7304362021486
 20
-604.9211493436618
 30
0.0
  0
VERTEX
  5
330
330
32E
100
AcDbEntity
  8
Drawing
 62
   250
420
  1842203
370
    80
100
AcDbVertex
100
AcDb2dVertex
 10
541.7304362021486
 20
-623.420691378187
 30
0.0
  0
VERTEX
  5
331
330
32E
100
AcDbEntity
  8
Drawing
 62
   250
420
  1842203
370
    80
100
AcDbVertex
100
AcDb2dVertex
 10
543.7305773553144
 20
-623.420691378187
 30
0.0
  0
VERTEX
  5
332
330
32E
100
AcDbEntity
  8
Drawing
 62
   250
420
  1842203
370
    80
100
AcDbVertex
100
AcDb2dVertex
 10
543.7305773553144
 20
-604.9211493436618
 30
0.0
  0
SEQEND
  5
333
330
32E
100
AcDbEntity
  8
Drawing
 62
   250
420
  1842203
370
    80
  0
POLYLINE
  5
334
330
159
100
AcDbEntity
  8
Drawing
 62
   250
420
  1842203
370
    80
100
AcDb2dPolyline
 66
     1
 10
0.0
 20
0.0
 30
0.0
  0
VERTEX
  5
335
330
334
100
AcDbEntity
  8
Drawing
 62
   250
420
  1842203
370
    80
100
AcDbVertex
100
AcDb2dVertex
 10
541.7304362021486
 20
-579.9208422026871
 30
0.0
  0
VERTEX
  5
336
330
334
100
AcDbEntity
  8
Drawing
 62
   250
420
  1842203
370
    80
100
AcDbVertex
100
AcDb2dVertex
 10
541.7304362021486
 20
-602.920991630568
 30
0.0
  0
SEQEND
  5
337
330
334
100
AcDbEntity
  8
Drawing
 62
   250
420
  1842203
370
    80
  0
POLYLINE
  5
338
330
159
100
AcDbEntity
  8
Drawing
 62
   250
420
  1842203
370
    80
100
AcDb2dPolyline
 66
     1
 10
0.0
 20
0.0
 30
0.0
  0
VERTEX
  5
339
330
338
100
AcDbEntity
  8
Drawing
 62
   250
420
  1842203
370
    80
100
AcDbVertex
100
AcDb2dVertex
 10
543.7305773553144
 20
-602.920991630568
 30
0.0
  0
VERTEX
  5
33A
330
338
100
AcDbEntity
  8
Drawing
 62
   250
420
  1842203
370
    80
100
AcDbVertex
100
AcDb2dVertex
 10
543.7305773553144
 20
-579.9208422026871
 30
0.0
  0
SEQEND
  5
33B
330
338
100
AcDbEntity
  8
Drawing
 62
   250
420
  1842203
370
    80
  0
POLYLINE
  5
33C
330
159
100
AcDbEntity
  8
Drawing
 62
   250
420
  1842203
370
    80
100
AcDb2dPolyline
 66
     1
 10
0.0
 20
0.0
 30
0.0
  0
VERTEX
  5
33D
330
33C
100
AcDbEntity
  8
Drawing
 62
   250
420
  1842203
370
    80
100
AcDbVertex
100
AcDb2dVertex
 10
541.7304362021486
 20
-554.9205516216393
 30
0.0
  0
VERTEX
  5
33E
330
33C
100
AcDbEntity
  8
Drawing
 62
   250
420
  1842203
370
    80
100
AcDbVertex
100
AcDb2dVertex
 10
541.7304362021486
 20
-577.9207010495201
 30
0.0
  0
SEQEND
  5
33F
330
33C
100
AcDbEntity
  8
Drawing
 62
   250
420
  1842203
370
    80
  0
POLYLINE
  5
340
330
159
100
AcDbEntity
  8
Drawing
 62
   250
420
  1842203
370
    80
100
AcDb2dPolyline
 66
     1
 10
0.0
 20
0.0
 30
0.0
  0
VERTEX
  5
341
330
340
100
AcDbEntity
  8
Drawing
 62
   250
420
  1842203
370
    80
100
AcDbVertex
100
AcDb2dVertex
 10
543.7305773553144
 20
-577.9207010495201
 30
0.0
  0
VERTEX
  5
342
330
340
100
AcDbEntity
  8
Drawing
 62
   250
420
  1842203
370
    80
100
AcDbVertex
100
AcDb2dVertex
 10
543.7305773553144
 20
-554.9205516216393
 30
0.0
  0
SEQEND
  5
343
330
340
100
AcDbEntity
  8
Drawing
 62
   250
420
  1842203
370
    80
  0
POLYLINE
  5
344
330
159
100
AcDbEntity
  8
Drawing
 62
   250
420
  1842203
370
    80
100
AcDb2dPolyline
 66
     1
 10
0.0
 20
0.0
 30
0.0
  0
VERTEX
  5
345
330
344
100
AcDbEntity
  8
Drawing
 62
   250
420
  1842203
370
    80
100
AcDbVertex
100
AcDb2dVertex
 10
541.7304362021486
 20
-529.9213208759464
 30
0.0
  0
VERTEX
  5
346
330
344
100
AcDbEntity
  8
Drawing
 62
   250
420
  1842203
370
    80
100
AcDbVertex
100
AcDb2dVertex
 10
541.7304362021486
 20
-552.9214703038266
 30
0.0
  0
SEQEND
  5
347
330
344
100
AcDbEntity
  8
Drawing
 62
   250
420
  1842203
370
    80
  0
POLYLINE
  5
348
330
159
100
AcDbEntity
  8
Drawing
 62
   250
420
  1842203
370
    80
100
AcDb2dPolyline
 66
     1
 10
0.0
 20
0.0
 30
0.0
  0
VERTEX
  5
349
330
348
100
AcDbEntity
  8
Drawing
 62
   250
420
  1842203
370
    80
100
AcDbVertex
100
AcDb2dVertex
 10
543.7305773553144
 20
-552.9214703038266
 30
0.0
  0
VERTEX
  5
34A
330
348
100
AcDbEntity
  8
Drawing
 62
   250
420
  1842203
370
    80
100
AcDbVertex
100
AcDb2dVertex
 10
543.7305773553144
 20
-529.9213208759464
 30
0.0
  0
SEQEND
  5
34B
330
348
100
AcDbEntity
  8
Drawing
 62
   250
420
  1842203
370
    80
  0
POLYLINE
  5
34C
330
159
100
AcDbEntity
  8
Drawing
 62
   250
420
  1842203
370
    80
100
AcDb2dPolyline
 66
     1
 10
0.0
 20
0.0
 30
0.0
  0
VERTEX
  5
34D
330
34C
100
AcDbEntity
  8
Drawing
 62
   250
420
  1842203
370
    80
100
AcDbVertex
100
AcDb2dVertex
 10
541.7304362021486
 20
-504.9209971750438
 30
0.0
  0
VERTEX
  5
34E
330
34C
100
AcDbEntity
  8
Drawing
 62
   250
420
  1842203
370
    80
100
AcDbVertex
100
AcDb2dVertex
 10
541.7304362021486
 20
-527.921146602924
 30
0.0
  0
SEQEND
  5
34F
330
34C
100
AcDbEntity
  8
Drawing
 62
   250
420
  1842203
370
    80
  0
POLYLINE
  5
350
330
159
100
AcDbEntity
  8
Drawing
 62
   250
420
  1842203
370
    80
100
AcDb2dPolyline
 66
     1
 10
0.0
 20
0.0
 30
0.0
  0
VERTEX
  5
351
330
350
100
AcDbEntity
  8
Drawing
 62
   250
420
  1842203
370
    80
100
AcDbVertex
100
AcDb2dVertex
 10
543.7305773553144
 20
-527.921146602924
 30
0.0
  0
VERTEX
  5
352
330
350
100
AcDbEntity
  8
Drawing
 62
   250
420
  1842203
370
    80
100
AcDbVertex
100
AcDb2dVertex
 10
543.7305773553144
 20
-504.9209971750438
 30
0.0
  0
SEQEND
  5
353
330
350
100
AcDbEntity
  8
Drawing
 62
   250
420
  1842203
370
    80
  0
POLYLINE
  5
354
330
159
100
AcDbEntity
  8
Drawing
 62
   250
420
  1842203
370
    80
100
AcDb2dPolyline
 66
     1
 10
0.0
 20
0.0
 30
0.0
  0
VERTEX
  5
355
330
354
100
AcDbEntity
  8
Drawing
 62
   250
420
  1842203
370
    80
100
AcDbVertex
100
AcDb2dVertex
 10
541.7304362021486
 20
-479.9206734741409
 30
0.0
  0
VERTEX
  5
356
330
354
100
AcDbEntity
  8
Drawing
 62
   250
420
  1842203
370
    80
100
AcDbVertex
100
AcDb2dVertex
 10
541.7304362021486
 20
-502.9208560218767
 30
0.0
  0
SEQEND
  5
357
330
354
100
AcDbEntity
  8
Drawing
 62
   250
420
  1842203
370
    80
  0
POLYLINE
  5
358
330
159
100
AcDbEntity
  8
Drawing
 62
   250
420
  1842203
370
    80
100
AcDb2dPolyline
 66
     1
 10
0.0
 20
0.0
 30
0.0
  0
VERTEX
  5
359
330
358
100
AcDbEntity
  8
Drawing
 62
   250
420
  1842203
370
    80
100
AcDbVertex
100
AcDb2dVertex
 10
543.7305773553144
 20
-502.9208560218767
 30
0.0
  0
VERTEX
  5
35A
330
358
100
AcDbEntity
  8
Drawing
 62
   250
420
  1842203
370
    80
100
AcDbVertex
100
AcDb2dVertex
 10
543.7305773553144
 20
-479.9206734741409
 30
0.0
  0
SEQEND
  5
35B
330
358
100
AcDbEntity
  8
Drawing
 62
   250
420
  1842203
370
    80
  0
POLYLINE
  5
35C
330
159
100
AcDbEntity
  8
Drawing
 62
   250
420
  1842203
370
    80
100
AcDb2dPolyline
 66
     1
 10
0.0
 20
0.0
 30
0.0
  0
VERTEX
  5
35D
330
35C
100
AcDbEntity
  8
Drawing
 62
   250
420
  1842203
370
    80
100
AcDbVertex
100
AcDb2dVertex
 10
543.7305773553144
 20
-504.9209971750438
 30
0.0
  0
VERTEX
  5
35E
330
35C
100
AcDbEntity
  8
Drawing
 62
   250
420
  1842203
370
    80
100
AcDbVertex
100
AcDb2dVertex
 10
541.7304362021486
 20
-504.9209971750438
 30
0.0
  0
SEQEND
  5
35F
330
35C
100
AcDbEntity
  8
Drawing
 62
   250
420
  1842203
370
    80
  0
POLYLINE
  5
360
330
159
100
AcDbEntity
  8
Drawing
 62
   250
420
  1842203
370
    80
100
AcDb2dPolyline
 66
     1
 10
0.0
 20
0.0
 30
0.0
  0
VERTEX
  5
361
330
360
100
AcDbEntity
  8
Drawing
 62
   250
420
  1842203
370
    80
100
AcDbVertex
100
AcDb2dVertex
 10
541.7304362021486
 20
-502.9208560218767
 30
0.0
  0
VERTEX
  5
362
330
360
100
AcDbEntity
  8
Drawing
 62
   250
420
  1842203
370
    80
100
AcDbVertex
100
AcDb2dVertex
 10
543.7305773553144
 20
-502.9208560218767
 30
0.0
  0
SEQEND
  5
363
330
360
100
AcDbEntity
  8
Drawing
 62
   250
420
  1842203
370
    80
  0
POLYLINE
  5
364
330
159
100
AcDbEntity
  8
Drawing
 62
   250
420
  1842203
370
    80
100
AcDb2dPolyline
 66
     1
 10
0.0
 20
0.0
 30
0.0
  0
VERTEX
  5
365
330
364
100
AcDbEntity
  8
Drawing
 62
   250
420
  1842203
370
    80
100
AcDbVertex
100
AcDb2dVertex
 10
543.7305773553144
 20
-529.9213208759464
 30
0.0
  0
VERTEX
  5
366
330
364
100
AcDbEntity
  8
Drawing
 62
   250
420
  1842203
370
    80
100
AcDbVertex
100
AcDb2dVertex
 10
541.7304362021486
 20
-529.9213208759464
 30
0.0
  0
SEQEND
  5
367
330
364
100
AcDbEntity
  8
Drawing
 62
   250
420
  1842203
370
    80
  0
POLYLINE
  5
368
330
159
100
AcDbEntity
  8
Drawing
 62
   250
420
  1842203
370
    80
100
AcDb2dPolyline
 66
     1
 10
0.0
 20
0.0
 30
0.0
  0
VERTEX
  5
369
330
368
100
AcDbEntity
  8
Drawing
 62
   250
420
  1842203
370
    80
100
AcDbVertex
100
AcDb2dVertex
 10
541.7304362021486
 20
-527.921146602924
 30
0.0
  0
VERTEX
  5
36A
330
368
100
AcDbEntity
  8
Drawing
 62
   250
420
  1842203
370
    80
100
AcDbVertex
100
AcDb2dVertex
 10
543.7305773553144
 20
-527.921146602924
 30
0.0
  0
SEQEND
  5
36B
330
368
100
AcDbEntity
  8
Drawing
 62
   250
420
  1842203
370
    80
  0
POLYLINE
  5
36C
330
159
100
AcDbEntity
  8
Drawing
 62
   250
420
  1842203
370
    80
100
AcDb2dPolyline
 66
     1
 10
0.0
 20
0.0
 30
0.0
  0
VERTEX
  5
36D
330
36C
100
AcDbEntity
  8
Drawing
 62
   250
420
  1842203
370
    80
100
AcDbVertex
100
AcDb2dVertex
 10
543.7305773553144
 20
-554.9205516216393
 30
0.0
  0
VERTEX
  5
36E
330
36C
100
AcDbEntity
  8
Drawing
 62
   250
420
  1842203
370
    80
100
AcDbVertex
100
AcDb2dVertex
 10
541.7304362021486
 20
-554.9205516216393
 30
0.0
  0
SEQEND
  5
36F
330
36C
100
AcDbEntity
  8
Drawing
 62
   250
420
  1842203
370
    80
  0
POLYLINE
  5
370
330
159
100
AcDbEntity
  8
Drawing
 62
   250
420
  1842203
370
    80
100
AcDb2dPolyline
 66
     1
 10
0.0
 20
0.0
 30
0.0
  0
VERTEX
  5
371
330
370
100
AcDbEntity
  8
Drawing
 62
   250
420
  1842203
370
    80
100
AcDbVertex
100
AcDb2dVertex
 10
541.7304362021486
 20
-552.9214703038266
 30
0.0
  0
VERTEX
  5
372
330
370
100
AcDbEntity
  8
Drawing
 62
   250
420
  1842203
370
    80
100
AcDbVertex
100
AcDb2dVertex
 10
543.7305773553144
 20
-552.9214703038266
 30
0.0
  0
SEQEND
  5
373
330
370
100
AcDbEntity
  8
Drawing
 62
   250
420
  1842203
370
    80
  0
POLYLINE
  5
374
330
159
100
AcDbEntity
  8
Drawing
 62
   250
420
  1842203
370
    80
100
AcDb2dPolyline
 66
     1
 10
0.0
 20
0.0
 30
0.0
  0
VERTEX
  5
375
330
374
100
AcDbEntity
  8
Drawing
 62
   250
420
  1842203
370
    80
100
AcDbVertex
100
AcDb2dVertex
 10
543.7305773553144
 20
-579.9208422026871
 30
0.0
  0
VERTEX
  5
376
330
374
100
AcDbEntity
  8
Drawing
 62
   250
420
  1842203
370
    80
100
AcDbVertex
100
AcDb2dVertex
 10
541.7304362021486
 20
-579.9208422026871
 30
0.0
  0
SEQEND
  5
377
330
374
100
AcDbEntity
  8
Drawing
 62
   250
420
  1842203
370
    80
  0
POLYLINE
  5
378
330
159
100
AcDbEntity
  8
Drawing
 62
   250
420
  1842203
370
    80
100
AcDb2dPolyline
 66
     1
 10
0.0
 20
0.0
 30
0.0
  0
VERTEX
  5
379
330
378
100
AcDbEntity
  8
Drawing
 62
   250
420
  1842203
370
    80
100
AcDbVertex
100
AcDb2dVertex
 10
541.7304362021486
 20
-577.9207010495201
 30
0.0
  0
VERTEX
  5
37A
330
378
100
AcDbEntity
  8
Drawing
 62
   250
420
  1842203
370
    80
100
AcDbVertex
100
AcDb2dVertex
 10
543.7305773553144
 20
-577.9207010495201
 30
0.0
  0
SEQEND
  5
37B
330
378
100
AcDbEntity
  8
Drawing
 62
   250
420
  1842203
370
    80
  0
POLYLINE
  5
37C
330
159
100
AcDbEntity
  8
Drawing
 62
   250
420
  1842203
370
    80
100
AcDb2dPolyline
 66
     1
 10
0.0
 20
0.0
 30
0.0
  0
VERTEX
  5
37D
330
37C
100
AcDbEntity
  8
Drawing
 62
   250
420
  1842203
370
    80
100
AcDbVertex
100
AcDb2dVertex
 10
543.7305773553144
 20
-604.9211493436618
 30
0.0
  0
VERTEX
  5
37E
330
37C
100
AcDbEntity
  8
Drawing
 62
   250
420
  1842203
370
    80
100
AcDbVertex
100
AcDb2dVertex
 10
541.7304362021486
 20
-604.9211493436618
 30
0.0
  0
SEQEND
  5
37F
330
37C
100
AcDbEntity
  8
Drawing
 62
   250
420
  1842203
370
    80
  0
POLYLINE
  5
380
330
159
100
AcDbEntity
  8
Drawing
 62
   250
420
  1842203
370
    80
100
AcDb2dPolyline
 66
     1
 10
0.0
 20
0.0
 30
0.0
  0
VERTEX
  5
381
330
380
100
AcDbEntity
  8
Drawing
 62
   250
420
  1842203
370
    80
100
AcDbVertex
100
AcDb2dVertex
 10
541.7304362021486
 20
-602.920991630568
 30
0.0
  0
VERTEX
  5
382
330
380
100
AcDbEntity
  8
Drawing
 62
   250
420
  1842203
370
    80
100
AcDbVertex
100
AcDb2dVertex
 10
543.7305773553144
 20
-602.920991630568
 30
0.0
  0
SEQEND
  5
383
330
380
100
AcDbEntity
  8
Drawing
 62
   250
420
  1842203
370
    80
  0
POLYLINE
  5
384
330
159
100
AcDbEntity
  8
Drawing
 62
   250
420
  1842203
370
    80
100
AcDb2dPolyline
 66
     1
 10
0.0
 20
0.0
 30
0.0
  0
VERTEX
  5
385
330
384
100
AcDbEntity
  8
Drawing
 62
   250
420
  1842203
370
    80
100
AcDbVertex
100
AcDb2dVertex
 10
566.7305280640678
 20
-477.9205323209738
 30
0.0
  0
VERTEX
  5
386
330
384
100
AcDbEntity
  8
Drawing
 62
   250
420
  1842203
370
    80
100
AcDbVertex
100
AcDb2dVertex
 10
568.7306692172336
 20
-477.9205323209738
 30
0.0
  0
SEQEND
  5
387
330
384
100
AcDbEntity
  8
Drawing
 62
   250
420
  1842203
370
    80
  0
POLYLINE
  5
388
330
159
100
AcDbEntity
  8
Drawing
 62
   250
420
  1842203
370
    80
100
AcDb2dPolyline
 66
     1
 10
0.0
 20
0.0
 30
0.0
  0
VERTEX
  5
389
330
388
100
AcDbEntity
  8
Drawing
 62
   250
420
  1842203
370
    80
100
AcDbVertex
100
AcDb2dVertex
 10
568.7306692172336
 20
-479.9206734741409
 30
0.0
  0
VERTEX
  5
38A
330
388
100
AcDbEntity
  8
Drawing
 62
   250
420
  1842203
370
    80
100
AcDbVertex
100
AcDb2dVertex
 10
566.7305280640678
 20
-479.9206734741409
 30
0.0
  0
SEQEND
  5
38B
330
388
100
AcDbEntity
  8
Drawing
 62
   250
420
  1842203
370
    80
  0
POLYLINE
  5
38C
330
159
100
AcDbEntity
  8
Drawing
 62
   250
420
  1842203
370
    80
100
AcDb2dPolyline
 66
     1
 10
0.0
 20
0.0
 30
0.0
  0
VERTEX
  5
38D
330
38C
100
AcDbEntity
  8
Drawing
 62
   250
420
  1842203
370
    80
100
AcDbVertex
100
AcDb2dVertex
 10
568.7306692172336
 20
-477.9205323209738
 30
0.0
  0
VERTEX
  5
38E
330
38C
100
AcDbEntity
  8
Drawing
 62
   250
420
  1842203
370
    80
100
AcDbVertex
100
AcDb2dVertex
 10
568.7306692172336
 20
-459.4209737265213
 30
0.0
  0
VERTEX
  5
38F
330
38C
100
AcDbEntity
  8
Drawing
 62
   250
420
  1842203
370
    80
100
AcDbVertex
100
AcDb2dVertex
 10
566.7305280640678
 20
-459.4209737265213
 30
0.0
  0
SEQEND
  5
390
330
38C
100
AcDbEntity
  8
Drawing
 62
   250
420
  1842203
370
    80
  0
POLYLINE
  5
391
330
159
100
AcDbEntity
  8
Drawing
 62
   250
420
  1842203
370
    80
100
AcDb2dPolyline
 66
     1
 10
0.0
 20
0.0
 30
0.0
  0
VERTEX
  5
392
330
391
100
AcDbEntity
  8
Drawing
 62
   250
420
  1842203
370
    80
100
AcDbVertex
100
AcDb2dVertex
 10
566.7305280640678
 20
-459.4209737265213
 30
0.0
  0
VERTEX
  5
393
330
391
100
AcDbEntity
  8
Drawing
 62
   250
420
  1842203
370
    80
100
AcDbVertex
100
AcDb2dVertex
 10
566.7305280640678
 20
-477.9205323209738
 30
0.0
  0
SEQEND
  5
394
330
391
100
AcDbEntity
  8
Drawing
 62
   250
420
  1842203
370
    80
  0
POLYLINE
  5
395
330
159
100
AcDbEntity
  8
Drawing
 62
   250
420
  1842203
370
    80
100
AcDb2dPolyline
 66
     1
 10
0.0
 20
0.0
 30
0.0
  0
VERTEX
  5
396
330
395
100
AcDbEntity
  8
Drawing
 62
   250
420
  1842203
370
    80
100
AcDbVertex
100
AcDb2dVertex
 10
566.7305280640678
 20
-604.9211493436618
 30
0.0
  0
VERTEX
  5
397
330
395
100
AcDbEntity
  8
Drawing
 62
   250
420
  1842203
370
    80
100
AcDbVertex
100
AcDb2dVertex
 10
566.7305280640678
 20
-623.420691378187
 30
0.0
  0
VERTEX
  5
398
330
395
100
AcDbEntity
  8
Drawing
 62
   250
420
  1842203
370
    80
100
AcDbVertex
100
AcDb2dVertex
 10
568.7306692172336
 20
-623.420691378187
 30
0.0
  0
VERTEX
  5
399
330
395
100
AcDbEntity
  8
Drawing
 62
   250
420
  1842203
370
    80
100
AcDbVertex
100
AcDb2dVertex
 10
568.7306692172336
 20
-604.9211493436618
 30
0.0
  0
SEQEND
  5
39A
330
395
100
AcDbEntity
  8
Drawing
 62
   250
420
  1842203
370
    80
  0
POLYLINE
  5
39B
330
159
100
AcDbEntity
  8
Drawing
 62
   250
420
  1842203
370
    80
100
AcDb2dPolyline
 66
     1
 10
0.0
 20
0.0
 30
0.0
  0
VERTEX
  5
39C
330
39B
100
AcDbEntity
  8
Drawing
 62
   250
420
  1842203
370
    80
100
AcDbVertex
100
AcDb2dVertex
 10
566.7305280640678
 20
-579.9208422026871
 30
0.0
  0
VERTEX
  5
39D
330
39B
100
AcDbEntity
  8
Drawing
 62
   250
420
  1842203
370
    80
100
AcDbVertex
100
AcDb2dVertex
 10
566.7305280640678
 20
-602.920991630568
 30
0.0
  0
SEQEND
  5
39E
330
39B
100
AcDbEntity
  8
Drawing
 62
   250
420
  1842203
370
    80
  0
POLYLINE
  5
39F
330
159
100
AcDbEntity
  8
Drawing
 62
   250
420
  1842203
370
    80
100
AcDb2dPolyline
 66
     1
 10
0.0
 20
0.0
 30
0.0
  0
VERTEX
  5
3A0
330
39F
100
AcDbEntity
  8
Drawing
 62
   250
420
  1842203
370
    80
100
AcDbVertex
100
AcDb2dVertex
 10
568.7306692172336
 20
-602.920991630568
 30
0.0
  0
VERTEX
  5
3A1
330
39F
100
AcDbEntity
  8
Drawing
 62
   250
420
  1842203
370
    80
100
AcDbVertex
100
AcDb2dVertex
 10
568.7306692172336
 20
-579.9208422026871
 30
0.0
  0
SEQEND
  5
3A2
330
39F
100
AcDbEntity
  8
Drawing
 62
   250
420
  1842203
370
    80
  0
POLYLINE
  5
3A3
330
159
100
AcDbEntity
  8
Drawing
 62
   250
420
  1842203
370
    80
100
AcDb2dPolyline
 66
     1
 10
0.0
 20
0.0
 30
0.0
  0
VERTEX
  5
3A4
330
3A3
100
AcDbEntity
  8
Drawing
 62
   250
420
  1842203
370
    80
100
AcDbVertex
100
AcDb2dVertex
 10
566.7305280640678
 20
-554.9205516216393
 30
0.0
  0
VERTEX
  5
3A5
330
3A3
100
AcDbEntity
  8
Drawing
 62
   250
420
  1842203
370
    80
100
AcDbVertex
100
AcDb2dVertex
 10
566.7305280640678
 20
-577.9207010495201
 30
0.0
  0
SEQEND
  5
3A6
330
3A3
100
AcDbEntity
  8
Drawing
 62
   250
420
  1842203
370
    80
  0
POLYLINE
  5
3A7
330
159
100
AcDbEntity
  8
Drawing
 62
   250
420
  1842203
370
    80
100
AcDb2dPolyline
 66
     1
 10
0.0
 20
0.0
 30
0.0
  0
VERTEX
  5
3A8
330
3A7
100
AcDbEntity
  8
Drawing
 62
   250
420
  1842203
370
    80
100
AcDbVertex
100
AcDb2dVertex
 10
568.7306692172336
 20
-577.9207010495201
 30
0.0
  0
VERTEX
  5
3A9
330
3A7
100
AcDbEntity
  8
Drawing
 62
   250
420
  1842203
370
    80
100
AcDbVertex
100
AcDb2dVertex
 10
568.7306692172336
 20
-554.9205516216393
 30
0.0
  0
SEQEND
  5
3AA
330
3A7
100
AcDbEntity
  8
Drawing
 62
   250
420
  1842203
370
    80
  0
POLYLINE
  5
3AB
330
159
100
AcDbEntity
  8
Drawing
 62
   250
420
  1842203
370
    80
100
AcDb2dPolyline
 66
     1
 10
0.0
 20
0.0
 30
0.0
  0
VERTEX
  5
3AC
330
3AB
100
AcDbEntity
  8
Drawing
 62
   250
420
  1842203
370
    80
100
AcDbVertex
100
AcDb2dVertex
 10
566.7305280640678
 20
-529.9213208759464
 30
0.0
  0
VERTEX
  5
3AD
330
3AB
100
AcDbEntity
  8
Drawing
 62
   250
420
  1842203
370
    80
100
AcDbVertex
100
AcDb2dVertex
 10
566.7305280640678
 20
-552.9214703038266
 30
0.0
  0
SEQEND
  5
3AE
330
3AB
100
AcDbEntity
  8
Drawing
 62
   250
420
  1842203
370
    80
  0
POLYLINE
  5
3AF
330
159
100
AcDbEntity
  8
Drawing
 62
   250
420
  1842203
370
    80
100
AcDb2dPolyline
 66
     1
 10
0.0
 20
0.0
 30
0.0
  0
VERTEX
  5
3B0
330
3AF
100
AcDbEntity
  8
Drawing
 62
   250
420
  1842203
370
    80
100
AcDbVertex
100
AcDb2dVertex
 10
568.7306692172336
 20
-552.9214703038266
 30
0.0
  0
VERTEX
  5
3B1
330
3AF
100
AcDbEntity
  8
Drawing
 62
   250
420
  1842203
370
    80
100
AcDbVertex
100
AcDb2dVertex
 10
568.7306692172336
 20
-529.9213208759464
 30
0.0
  0
SEQEND
  5
3B2
330
3AF
100
AcDbEntity
  8
Drawing
 62
   250
420
  1842203
370
    80
  0
POLYLINE
  5
3B3
330
159
100
AcDbEntity
  8
Drawing
 62
   250
420
  1842203
370
    80
100
AcDb2dPolyline
 66
     1
 10
0.0
 20
0.0
 30
0.0
  0
VERTEX
  5
3B4
330
3B3
100
AcDbEntity
  8
Drawing
 62
   250
420
  1842203
370
    80
100
AcDbVertex
100
AcDb2dVertex
 10
566.7305280640678
 20
-504.9209971750438
 30
0.0
  0
VERTEX
  5
3B5
330
3B3
100
AcDbEntity
  8
Drawing
 62
   250
420
  1842203
370
    80
100
AcDbVertex
100
AcDb2dVertex
 10
566.7305280640678
 20
-527.921146602924
 30
0.0
  0
SEQEND
  5
3B6
330
3B3
100
AcDbEntity
  8
Drawing
 62
   250
420
  1842203
370
    80
  0
POLYLINE
  5
3B7
330
159
100
AcDbEntity
  8
Drawing
 62
   250
420
  1842203
370
    80
100
AcDb2dPolyline
 66
     1
 10
0.0
 20
0.0
 30
0.0
  0
VERTEX
  5
3B8
330
3B7
100
AcDbEntity
  8
Drawing
 62
   250
420
  1842203
370
    80
100
AcDbVertex
100
AcDb2dVertex
 10
568.7306692172336
 20
-527.921146602924
 30
0.0
  0
VERTEX
  5
3B9
330
3B7
100
AcDbEntity
  8
Drawing
 62
   250
420
  1842203
370
    80
100
AcDbVertex
100
AcDb2dVertex
 10
568.7306692172336
 20
-504.9209971750438
 30
0.0
  0
SEQEND
  5
3BA
330
3B7
100
AcDbEntity
  8
Drawing
 62
   250
420
  1842203
370
    80
  0
POLYLINE
  5
3BB
330
159
100
AcDbEntity
  8
Drawing
 62
   250
420
  1842203
370
    80
100
AcDb2dPolyline
 66
     1
 10
0.0
 20
0.0
 30
0.0
  0
VERTEX
  5
3BC
330
3BB
100
AcDbEntity
  8
Drawing
 62
   250
420
  1842203
370
    80
100
AcDbVertex
100
AcDb2dVertex
 10
566.7305280640678
 20
-479.9206734741409
 30
0.0
  0
VERTEX
  5
3BD
330
3BB
100
AcDbEntity
  8
Drawing
 62
   250
420
  1842203
370
    80
100
AcDbVertex
100
AcDb2dVertex
 10
566.7305280640678
 20
-502.9208560218767
 30
0.0
  0
SEQEND
  5
3BE
330
3BB
100
AcDbEntity
  8
Drawing
 62
   250
420
  1842203
370
    80
  0
POLYLINE
  5
3BF
330
159
100
AcDbEntity
  8
Drawing
 62
   250
420
  1842203
370
    80
100
AcDb2dPolyline
 66
     1
 10
0.0
 20
0.0
 30
0.0
  0
VERTEX
  5
3C0
330
3BF
100
AcDbEntity
  8
Drawing
 62
   250
420
  1842203
370
    80
100
AcDbVertex
100
AcDb2dVertex
 10
568.7306692172336
 20
-502.9208560218767
 30
0.0
  0
VERTEX
  5
3C1
330
3BF
100
AcDbEntity
  8
Drawing
 62
   250
420
  1842203
370
    80
100
AcDbVertex
100
AcDb2dVertex
 10
568.7306692172336
 20
-479.9206734741409
 30
0.0
  0
SEQEND
  5
3C2
330
3BF
100
AcDbEntity
  8
Drawing
 62
   250
420
  1842203
370
    80
  0
POLYLINE
  5
3C3
330
159
100
AcDbEntity
  8
Drawing
 62
   250
420
  1842203
370
    80
100
AcDb2dPolyline
 66
     1
 10
0.0
 20
0.0
 30
0.0
  0
VERTEX
  5
3C4
330
3C3
100
AcDbEntity
  8
Drawing
 62
   250
420
  1842203
370
    80
100
AcDbVertex
100
AcDb2dVertex
 10
568.7306692172336
 20
-504.9209971750438
 30
0.0
  0
VERTEX
  5
3C5
330
3C3
100
AcDbEntity
  8
Drawing
 62
   250
420
  1842203
370
    80
100
AcDbVertex
100
AcDb2dVertex
 10
566.7305280640678
 20
-504.9209971750438
 30
0.0
  0
SEQEND
  5
3C6
330
3C3
100
AcDbEntity
  8
Drawing
 62
   250
420
  1842203
370
    80
  0
POLYLINE
  5
3C7
330
159
100
AcDbEntity
  8
Drawing
 62
   250
420
  1842203
370
    80
100
AcDb2dPolyline
 66
     1
 10
0.0
 20
0.0
 30
0.0
  0
VERTEX
  5
3C8
330
3C7
100
AcDbEntity
  8
Drawing
 62
   250
420
  1842203
370
    80
100
AcDbVertex
100
AcDb2dVertex
 10
566.7305280640678
 20
-502.9208560218767
 30
0.0
  0
VERTEX
  5
3C9
330
3C7
100
AcDbEntity
  8
Drawing
 62
   250
420
  1842203
370
    80
100
AcDbVertex
100
AcDb2dVertex
 10
568.7306692172336
 20
-502.9208560218767
 30
0.0
  0
SEQEND
  5
3CA
330
3C7
100
AcDbEntity
  8
Drawing
 62
   250
420
  1842203
370
    80
  0
POLYLINE
  5
3CB
330
159
100
AcDbEntity
  8
Drawing
 62
   250
420
  1842203
370
    80
100
AcDb2dPolyline
 66
     1
 10
0.0
 20
0.0
 30
0.0
  0
VERTEX
  5
3CC
330
3CB
100
AcDbEntity
  8
Drawing
 62
   250
420
  1842203
370
    80
100
AcDbVertex
100
AcDb2dVertex
 10
568.7306692172336
 20
-529.9213208759464
 30
0.0
  0
VERTEX
  5
3CD
330
3CB
100
AcDbEntity
  8
Drawing
 62
   250
420
  1842203
370
    80
100
AcDbVertex
100
AcDb2dVertex
 10
566.7305280640678
 20
-529.9213208759464
 30
0.0
  0
SEQEND
  5
3CE
330
3CB
100
AcDbEntity
  8
Drawing
 62
   250
420
  1842203
370
    80
  0
POLYLINE
  5
3CF
330
159
100
AcDbEntity
  8
Drawing
 62
   250
420
  1842203
370
    80
100
AcDb2dPolyline
 66
     1
 10
0.0
 20
0.0
 30
0.0
  0
VERTEX
  5
3D0
330
3CF
100
AcDbEntity
  8
Drawing
 62
   250
420
  1842203
370
    80
100
AcDbVertex
100
AcDb2dVertex
 10
566.7305280640678
 20
-527.921146602924
 30
0.0
  0
VERTEX
  5
3D1
330
3CF
100
AcDbEntity
  8
Drawing
 62
   250
420
  1842203
370
    80
100
AcDbVertex
100
AcDb2dVertex
 10
568.7306692172336
 20
-527.921146602924
 30
0.0
  0
SEQEND
  5
3D2
330
3CF
100
AcDbEntity
  8
Drawing
 62
   250
420
  1842203
370
    80
  0
POLYLINE
  5
3D3
330
159
100
AcDbEntity
  8
Drawing
 62
   250
420
  1842203
370
    80
100
AcDb2dPolyline
 66
     1
 10
0.0
 20
0.0
 30
0.0
  0
VERTEX
  5
3D4
330
3D3
100
AcDbEntity
  8
Drawing
 62
   250
420
  1842203
370
    80
100
AcDbVertex
100
AcDb2dVertex
 10
568.7306692172336
 20
-554.9205516216393
 30
0.0
  0
VERTEX
  5
3D5
330
3D3
100
AcDbEntity
  8
Drawing
 62
   250
420
  1842203
370
    80
100
AcDbVertex
100
AcDb2dVertex
 10
566.7305280640678
 20
-554.9205516216393
 30
0.0
  0
SEQEND
  5
3D6
330
3D3
100
AcDbEntity
  8
Drawing
 62
   250
420
  1842203
370
    80
  0
POLYLINE
  5
3D7
330
159
100
AcDbEntity
  8
Drawing
 62
   250
420
  1842203
370
    80
100
AcDb2dPolyline
 66
     1
 10
0.0
 20
0.0
 30
0.0
  0
VERTEX
  5
3D8
330
3D7
100
AcDbEntity
  8
Drawing
 62
   250
420
  1842203
370
    80
100
AcDbVertex
100
AcDb2dVertex
 10
566.7305280640678
 20
-552.9214703038266
 30
0.0
  0
VERTEX
  5
3D9
330
3D7
100
AcDbEntity
  8
Drawing
 62
   250
420
  1842203
370
    80
100
AcDbVertex
100
AcDb2dVertex
 10
568.7306692172336
 20
-552.9214703038266
 30
0.0
  0
SEQEND
  5
3DA
330
3D7
100
AcDbEntity
  8
Drawing
 62
   250
420
  1842203
370
    80
  0
POLYLINE
  5
3DB
330
159
100
AcDbEntity
  8
Drawing
 62
   250
420
  1842203
370
    80
100
AcDb2dPolyline
 66
     1
 10
0.0
 20
0.0
 30
0.0
  0
VERTEX
  5
3DC
330
3DB
100
AcDbEntity
  8
Drawing
 62
   250
420
  1842203
370
    80
100
AcDbVertex
100
AcDb2dVertex
 10
568.7306692172336
 20
-579.9208422026871
 30
0.0
  0
VERTEX
  5
3DD
330
3DB
100
AcDbEntity
  8
Drawing
 62
   250
420
  1842203
370
    80
100
AcDbVertex
100
AcDb2dVertex
 10
566.7305280640678
 20
-579.9208422026871
 30
0.0
  0
SEQEND
  5
3DE
330
3DB
100
AcDbEntity
  8
Drawing
 62
   250
420
  1842203
370
    80
  0
POLYLINE
  5
3DF
330
159
100
AcDbEntity
  8
Drawing
 62
   250
420
  1842203
370
    80
100
AcDb2dPolyline
 66
     1
 10
0.0
 20
0.0
 30
0.0
  0
VERTEX
  5
3E0
330
3DF
100
AcDbEntity
  8
Drawing
 62
   250
420
  1842203
370
    80
100
AcDbVertex
100
AcDb2dVertex
 10
566.7305280640678
 20
-577.9207010495201
 30
0.0
  0
VERTEX
  5
3E1
330
3DF
100
AcDbEntity
  8
Drawing
 62
   250
420
  1842203
370
    80
100
AcDbVertex
100
AcDb2dVertex
 10
568.7306692172336
 20
-577.9207010495201
 30
0.0
  0
SEQEND
  5
3E2
330
3DF
100
AcDbEntity
  8
Drawing
 62
   250
420
  1842203
370
    80
  0
POLYLINE
  5
3E3
330
159
100
AcDbEntity
  8
Drawing
 62
   250
420
  1842203
370
    80
100
AcDb2dPolyline
 66
     1
 10
0.0
 20
0.0
 30
0.0
  0
VERTEX
  5
3E4
330
3E3
100
AcDbEntity
  8
Drawing
 62
   250
420
  1842203
370
    80
100
AcDbVertex
100
AcDb2dVertex
 10
568.7306692172336
 20
-604.9211493436618
 30
0.0
  0
VERTEX
  5
3E5
330
3E3
100
AcDbEntity
  8
Drawing
 62
   250
420
  1842203
370
    80
100
AcDbVertex
100
AcDb2dVertex
 10
566.7305280640678
 20
-604.9211493436618
 30
0.0
  0
SEQEND
  5
3E6
330
3E3
100
AcDbEntity
  8
Drawing
 62
   250
420
  1842203
370
    80
  0
POLYLINE
  5
3E7
330
159
100
AcDbEntity
  8
Drawing
 62
   250
420
  1842203
370
    80
100
AcDb2dPolyline
 66
     1
 10
0.0
 20
0.0
 30
0.0
  0
VERTEX
  5
3E8
330
3E7
100
AcDbEntity
  8
Drawing
 62
   250
420
  1842203
370
    80
100
AcDbVertex
100
AcDb2dVertex
 10
566.7305280640678
 20
-602.920991630568
 30
0.0
  0
VERTEX
  5
3E9
330
3E7
100
AcDbEntity
  8
Drawing
 62
   250
420
  1842203
370
    80
100
AcDbVertex
100
AcDb2dVertex
 10
568.7306692172336
 20
-602.920991630568
 30
0.0
  0
SEQEND
  5
3EA
330
3E7
100
AcDbEntity
  8
Drawing
 62
   250
420
  1842203
370
    80
  0
POLYLINE
  5
3EB
330
159
100
AcDbEntity
  8
Drawing
 62
   250
420
  1842203
370
    80
100
AcDb2dPolyline
 66
     1
 10
0.0
 20
0.0
 30
0.0
  0
VERTEX
  5
3EC
330
3EB
100
AcDbEntity
  8
Drawing
 62
   250
420
  1842203
370
    80
100
AcDbVertex
100
AcDb2dVertex
 10
477.1481103134005
 20
-474.4207241410082
 30
0.0
  0
VERTEX
  5
3ED
330
3EB
100
AcDbEntity
  8
Drawing
 62
   250
420
  1842203
370
    80
100
AcDbVertex
100
AcDb2dVertex
 10
477.4302749166437
 20
-474.4207241410082
 30
0.0
  0
VERTEX
  5
3EE
330
3EB
100
AcDbEntity
  8
Drawing
 62
   250
420
  1842203
370
    80
100
AcDbVertex
100
AcDb2dVertex
 10
477.4302749166437
 20
-459.4212055655052
 30
0.0
  0
SEQEND
  5
3EF
330
3EB
100
AcDbEntity
  8
Drawing
 62
   250
420
  1842203
370
    80
  0
POLYLINE
  5
3F0
330
159
100
AcDbEntity
  8
Drawing
 62
   250
420
  1842203
370
    80
100
AcDb2dPolyline
 66
     1
 10
0.0
 20
0.0
 30
0.0
  0
VERTEX
  5
3F1
330
3F0
100
AcDbEntity
  8
Drawing
 62
   250
420
  1842203
370
    80
100
AcDbVertex
100
AcDb2dVertex
 10
432.7322984326658
 20
-459.4212055655052
 30
0.0
  0
VERTEX
  5
3F2
330
3F0
100
AcDbEntity
  8
Drawing
 62
   250
420
  1842203
370
    80
100
AcDbVertex
100
AcDb2dVertex
 10
432.7322984326658
 20
-474.4207241410082
 30
0.0
  0
VERTEX
  5
3F3
330
3F0
100
AcDbEntity
  8
Drawing
 62
   250
420
  1842203
370
    80
100
AcDbVertex
100
AcDb2dVertex
 10
433.0133700806961
 20
-474.4207241410082
 30
0.0
  0
SEQEND
  5
3F4
330
3F0
100
AcDbEntity
  8
Drawing
 62
   250
420
  1842203
370
    80
  0
POLYLINE
  5
3F5
330
159
100
AcDbEntity
  8
Drawing
 62
   250
420
  1842203
370
    80
100
AcDb2dPolyline
 66
     1
 10
0.0
 20
0.0
 30
0.0
  0
VERTEX
  5
3F6
330
3F5
100
AcDbEntity
  8
Drawing
 62
   250
420
  1842203
370
    80
100
AcDbVertex
100
AcDb2dVertex
 10
435.0124513985101
 20
-474.4207241410082
 30
0.0
  0
VERTEX
  5
3F7
330
3F5
100
AcDbEntity
  8
Drawing
 62
   250
420
  1842203
370
    80
100
AcDbVertex
100
AcDb2dVertex
 10
475.1501219507987
 20
-474.4207241410082
 30
0.0
  0
SEQEND
  5
3F8
330
3F5
100
AcDbEntity
  8
Drawing
 62
   250
420
  1842203
370
    80
  0
POLYLINE
  5
3F9
330
159
100
AcDbEntity
  8
Drawing
 62
   250
420
  1842203
370
    80
100
AcDb2dPolyline
 66
     1
 10
0.0
 20
0.0
 30
0.0
  0
VERTEX
  5
3FA
330
3F9
100
AcDbEntity
  8
Drawing
 62
   250
420
  1842203
370
    80
100
AcDbVertex
100
AcDb2dVertex
 10
475.1501219507987
 20
-459.4212055655052
 30
0.0
  0
VERTEX
  5
3FB
330
3F9
100
AcDbEntity
  8
Drawing
 62
   250
420
  1842203
370
    80
100
AcDbVertex
100
AcDb2dVertex
 10
435.0124513985101
 20
-459.4212055655052
 30
0.0
  0
SEQEND
  5
3FC
330
3F9
100
AcDbEntity
  8
Drawing
 62
   250
420
  1842203
370
    80
  0
SPLINE
  5
3FD
330
159
100
AcDbEntity
  8
Drawing
 62
   250
420
  1842203
370
    40
100
AcDbSpline
210
0.0
220
0.0
230
1.0
 70
     8
 71
     3
 72
    20
 73
    16
 74
     0
 42
0.0000000001
 43
0.0000000001
 12
1.0
 22
0.0
 32
0.0
 13
1.0
 23
0.0
 33
0.0
 40
0.0
 40
0.0
 40
0.0
 40
0.0
 40
1.0
 40
1.0
 40
1.0
 40
2.0
 40
2.0
 40
2.0
 40
3.0
 40
3.0
 40
3.0
 40
4.0
 40
4.0
 40
4.0
 40
5.0
 40
5.0
 40
5.0
 40
5.0
 10
457.4178675931704
 20
-465.0396577392269
 30
0.0
 10
456.7819001406842
 20
-464.2473976917877
 30
0.0
 10
455.7888840931793
 20
-463.8306505584356
 30
0.0
 10
454.778496681814
 20
-463.9326597113184
 30
0.0
 10
453.7681092704514
 20
-464.0336090288464
 30
0.0
 10
452.8771023758296
 20
-464.6391724545972
 30
0.0
 10
452.4115200165296
 20
-465.5421190568856
 30
0.0
 10
451.9459376572251
 20
-466.4439727039644
 30
0.0
 10
451.9687241173506
 20
-467.5205667051376
 30
0.0
 10
452.4712019949367
 20
-468.4029127577199
 30
0.0
 10
452.9747728277312
 20
-469.2852256904485
 30
0.0
 10
453.8896591376842
 20
-469.8528337625614
 30
0.0
 10
454.9032922948226
 20
-469.9125157409682
 30
0.0
 10
455.9169420118857
 20
-469.9711047641662
 30
0.0
 10
456.8915103002491
 20
-469.5142163667572
 30
0.0
 10
457.4938445401548
 20
-468.6959241134201
 30
0.0
  0
POLYLINE
  5
3FE
330
159
100
AcDbEntity
  8
Drawing
 62
   250
420
  1842203
370
    40
100
AcDb2dPolyline
 66
     1
 10
0.0
 20
0.0
 30
0.0
  0
VERTEX
  5
3FF
330
3FE
100
AcDbEntity
  8
Drawing
 62
   250
420
  1842203
370
    40
100
AcDbVertex
100
AcDb2dVertex
 10
457.4178675931704
 20
-465.0396577392269
 30
0.0
  0
VERTEX
  5
400
330
3FE
100
AcDbEntity
  8
Drawing
 62
   250
420
  1842203
370
    40
100
AcDbVertex
100
AcDb2dVertex
 10
456.5268606985485
 20
-465.7059960985945
 30
0.0
  0
SEQEND
  5
401
330
3FE
100
AcDbEntity
  8
Drawing
 62
   250
420
  1842203
370
    40
  0
SPLINE
  5
402
330
159
100
AcDbEntity
  8
Drawing
 62
   250
420
  1842203
370
    40
100
AcDbSpline
210
0.0
220
0.0
230
1.0
 70
     8
 71
     3
 72
    20
 73
    16
 74
     0
 42
0.0000000001
 43
0.0000000001
 12
1.0
 22
0.0
 32
0.0
 13
1.0
 23
0.0
 33
0.0
 40
0.0
 40
0.0
 40
0.0
 40
0.0
 40
1.0
 40
1.0
 40
1.0
 40
2.0
 40
2.0
 40
2.0
 40
3.0
 40
3.0
 40
3.0
 40
4.0
 40
4.0
 40
4.0
 40
5.0
 40
5.0
 40
5.0
 40
5.0
 10
456.5268606985485
 20
-465.7059960985945
 30
0.0
 10
456.1209768775798
 20
-465.2197966296591
 30
0.0
 10
455.4969325728329
 20
-464.9691124484349
 30
0.0
 10
454.866396776541
 20
-465.0407175745819
 30
0.0
 10
454.2358609802447
 20
-465.1112628653746
 30
0.0
 10
453.6834549215008
 20
-465.4943602262172
 30
0.0
 10
453.394765706856
 20
-466.0598155077668
 30
0.0
 10
453.1071694474229
 20
-466.6252376694603
 30
0.0
 10
453.1223714607906
 20
-467.2970076850207
 30
0.0
 10
453.4349235308418
 20
-467.8494137437659
 30
0.0
 10
453.7474756008893
 20
-468.4007268473011
 30
0.0
 10
454.3161600682852
 20
-468.7588849574555
 30
0.0
 10
454.9499581702826
 20
-468.8022719672859
 30
0.0
 10
455.5826798769925
 20
-468.8456920969709
 30
0.0
 10
456.1947679141475
 20
-468.5678496347847
 30
0.0
 10
456.5800346254821
 20
-468.0632024067069
 30
0.0
  0
POLYLINE
  5
403
330
159
100
AcDbEntity
  8
Drawing
 62
   250
420
  1842203
370
    40
100
AcDb2dPolyline
 66
     1
 10
0.0
 20
0.0
 30
0.0
  0
VERTEX
  5
404
330
403
100
AcDbEntity
  8
Drawing
 62
   250
420
  1842203
370
    40
100
AcDbVertex
100
AcDb2dVertex
 10
456.5800346254821
 20
-468.0632024067069
 30
0.0
  0
VERTEX
  5
405
330
403
100
AcDbEntity
  8
Drawing
 62
   250
420
  1842203
370
    40
100
AcDbVertex
100
AcDb2dVertex
 10
457.4938445401548
 20
-468.6959241134201
 30
0.0
  0
SEQEND
  5
406
330
403
100
AcDbEntity
  8
Drawing
 62
   250
420
  1842203
370
    40
  0
POLYLINE
  5
407
330
159
100
AcDbEntity
  8
Drawing
 62
   250
420
  1842203
370
    40
100
AcDb2dPolyline
 66
     1
 10
0.0
 20
0.0
 30
0.0
  0
VERTEX
  5
408
330
407
100
AcDbEntity
  8
Drawing
 62
   250
420
  1842203
370
    40
100
AcDbVertex
100
AcDb2dVertex
 10
445.000207301106
 20
-469.9179473971613
 30
0.0
  0
VERTEX
  5
409
330
407
100
AcDbEntity
  8
Drawing
 62
   250
420
  1842203
370
    40
100
AcDbVertex
100
AcDb2dVertex
 10
443.8888871321413
 20
-469.9179473971613
 30
0.0
  0
SEQEND
  5
40A
330
407
100
AcDbEntity
  8
Drawing
 62
   250
420
  1842203
370
    40
  0
SPLINE
  5
40B
330
159
100
AcDbEntity
  8
Drawing
 62
   250
420
  1842203
370
    40
100
AcDbSpline
210
0.0
220
0.0
230
1.0
 70
     8
 71
     3
 72
    11
 73
     7
 74
     0
 42
0.0000000001
 43
0.0000000001
 12
1.0
 22
0.0
 32
0.0
 13
1.0
 23
0.0
 33
0.0
 40
0.0
 40
0.0
 40
0.0
 40
0.0
 40
1.0
 40
1.0
 40
1.0
 40
2.0
 40
2.0
 40
2.0
 40
2.0
 10
449.5464041746361
 20
-469.9179473971613
 30
0.0
 10
449.5464041746361
 20
-467.595450696913
 30
0.0
 10
448.5088750422384
 20
-465.3956299389632
 30
0.0
 10
446.7181838510292
 20
-463.917490817805
 30
0.0
 10
444.9263997046136
 20
-465.3956299389632
 30
0.0
 10
443.8888871321413
 20
-467.595450696913
 30
0.0
 10
443.8888871321413
 20
-469.9179473971613
 30
0.0
  0
POLYLINE
  5
40C
330
159
100
AcDbEntity
  8
Drawing
 62
   250
420
  1842203
370
    40
100
AcDb2dPolyline
 66
     1
 10
0.0
 20
0.0
 30
0.0
  0
VERTEX
  5
40D
330
40C
100
AcDbEntity
  8
Drawing
 62
   250
420
  1842203
370
    40
100
AcDbVertex
100
AcDb2dVertex
 10
449.5464041746361
 20
-469.9179473971613
 30
0.0
  0
VERTEX
  5
40E
330
40C
100
AcDbEntity
  8
Drawing
 62
   250
420
  1842203
370
    40
100
AcDbVertex
100
AcDb2dVertex
 10
448.4350840056714
 20
-469.9179473971613
 30
0.0
  0
SEQEND
  5
40F
330
40C
100
AcDbEntity
  8
Drawing
 62
   250
420
  1842203
370
    40
  0
SPLINE
  5
410
330
159
100
AcDbEntity
  8
Drawing
 62
   250
420
  1842203
370
    40
100
AcDbSpline
210
0.0
220
0.0
230
1.0
 70
     8
 71
     3
 72
     8
 73
     4
 74
     0
 42
0.0000000001
 43
0.0000000001
 12
1.0
 22
0.0
 32
0.0
 13
1.0
 23
0.0
 33
0.0
 40
0.0
 40
0.0
 40
0.0
 40
0.0
 40
1.0
 40
1.0
 40
1.0
 40
1.0
 10
448.4350840056714
 20
-469.9179473971613
 30
0.0
 10
448.4350840056714
 20
-469.5446203934932
 30
0.0
 10
448.403603583655
 20
-469.1734461803899
 30
0.0
 10
448.3417522547546
 20
-468.8066106682687
 30
0.0
  0
POLYLINE
  5
411
330
159
100
AcDbEntity
  8
Drawing
 62
   250
420
  1842203
370
    40
100
AcDb2dPolyline
 66
     1
 10
0.0
 20
0.0
 30
0.0
  0
VERTEX
  5
412
330
411
100
AcDbEntity
  8
Drawing
 62
   250
420
  1842203
370
    40
100
AcDbVertex
100
AcDb2dVertex
 10
448.3417522547546
 20
-468.8066106682687
 30
0.0
  0
VERTEX
  5
413
330
411
100
AcDbEntity
  8
Drawing
 62
   250
420
  1842203
370
    40
100
AcDbVertex
100
AcDb2dVertex
 10
445.0935390520228
 20
-468.8066106682687
 30
0.0
  0
SEQEND
  5
414
330
411
100
AcDbEntity
  8
Drawing
 62
   250
420
  1842203
370
    40
  0
SPLINE
  5
415
330
159
100
AcDbEntity
  8
Drawing
 62
   250
420
  1842203
370
    40
100
AcDbSpline
210
0.0
220
0.0
230
1.0
 70
     8
 71
     3
 72
     8
 73
     4
 74
     0
 42
0.0000000001
 43
0.0000000001
 12
1.0
 22
0.0
 32
0.0
 13
1.0
 23
0.0
 33
0.0
 40
0.0
 40
0.0
 40
0.0
 40
0.0
 40
1.0
 40
1.0
 40
1.0
 40
1.0
 10
445.0935390520228
 20
-468.8066106682687
 30
0.0
 10
445.0316711631945
 20
-469.1734461803899
 30
0.0
 10
445.000207301106
 20
-469.5446203934932
 30
0.0
 10
445.000207301106
 20
-469.9179473971613
 30
0.0
  0
SPLINE
  5
416
330
159
100
AcDbEntity
  8
Drawing
 62
   250
420
  1842203
370
    40
100
AcDbSpline
210
0.0
220
0.0
230
1.0
 70
    11
 71
     3
 72
    14
 73
    10
 74
     0
 42
0.0000000001
 43
0.0000000001
 12
1.0
 22
0.0
 32
0.0
 13
1.0
 23
0.0
 33
0.0
 40
0.0
 40
0.0
 40
0.0
 40
0.0
 40
1.0
 40
1.0
 40
1.0
 40
2.0
 40
2.0
 40
2.0
 40
3.0
 40
3.0
 40
3.0
 40
3.0
 10
445.3822117067396
 20
-467.695307059232
 30
0.0
 10
445.3822117067396
 20
-467.695307059232
 30
0.0
 10
448.0541559953214
 20
-467.695307059232
 30
0.0
 10
448.0541559953214
 20
-467.695307059232
 30
0.0
 10
447.7611280796946
 20
-466.8661514935093
 30
0.0
 10
447.3064090327744
 20
-466.1032025175965
 30
0.0
 10
446.7181838510292
 20
-465.4509732163875
 30
0.0
 10
446.128882274003
 20
-466.1032025175965
 30
0.0
 10
445.6752396223665
 20
-466.8661514935093
 30
0.0
 10
445.3822117067396
 20
-467.695307059232
 30
0.0
  0
SPLINE
  5
417
330
159
100
AcDbEntity
  8
Drawing
 62
   250
420
  1842203
370
    40
100
AcDbSpline
210
0.0
220
0.0
230
1.0
 70
    11
 71
     3
 72
    23
 73
    19
 74
     0
 42
0.0000000001
 43
0.0000000001
 12
1.0
 22
0.0
 32
0.0
 13
1.0
 23
0.0
 33
0.0
 40
0.0
 40
0.0
 40
0.0
 40
0.0
 40
1.0
 40
1.0
 40
1.0
 40
2.0
 40
2.0
 40
2.0
 40
3.0
 40
3.0
 40
3.0
 40
4.0
 40
4.0
 40
4.0
 40
5.0
 40
5.0
 40
5.0
 40
6.0
 40
6.0
 40
6.0
 40
6.0
 10
465.8558626885321
 20
-466.9171560699508
 30
0.0
 10
465.8558626885321
 20
-465.8459937249704
 30
0.0
 10
465.2839159154389
 20
-464.8551470279572
 30
0.0
 10
464.3560135025317
 20
-464.31903593779
 30
0.0
 10
463.4270181344193
 20
-463.7839846829766
 30
0.0
 10
462.2842341033661
 20
-463.7839846829766
 30
0.0
 10
461.3552387352505
 20
-464.31903593779
 30
0.0
 10
460.4273363223464
 20
-464.8551470279572
 30
0.0
 10
459.8553895492494
 20
-465.8459937249704
 30
0.0
 10
459.8553895492494
 20
-466.9171560699508
 30
0.0
 10
459.8553895492494
 20
-467.9894113701412
 30
0.0
 10
460.4273363223464
 20
-468.979198231799
 30
0.0
 10
461.3552387352505
 20
-469.5153093219669
 30
0.0
 10
462.2842341033661
 20
-470.0514204121347
 30
0.0
 10
463.4270181344193
 20
-470.0514204121347
 30
0.0
 10
464.3560135025317
 20
-469.5153093219669
 30
0.0
 10
465.2839159154389
 20
-468.979198231799
 30
0.0
 10
465.8558626885321
 20
-467.9894113701412
 30
0.0
 10
465.8558626885321
 20
-466.9171560699508
 30
0.0
  0
SPLINE
  5
418
330
159
100
AcDbEntity
  8
Drawing
 62
   250
420
  1842203
370
    40
100
AcDbSpline
210
0.0
220
0.0
230
1.0
 70
    11
 71
     3
 72
    23
 73
    19
 74
     0
 42
0.0000000001
 43
0.0000000001
 12
1.0
 22
0.0
 32
0.0
 13
1.0
 23
0.0
 33
0.0
 40
0.0
 40
0.0
 40
0.0
 40
0.0
 40
1.0
 40
1.0
 40
1.0
 40
2.0
 40
2.0
 40
2.0
 40
3.0
 40
3.0
 40
3.0
 40
4.0
 40
4.0
 40
4.0
 40
5.0
 40
5.0
 40
5.0
 40
6.0
 40
6.0
 40
6.0
 40
6.0
 10
464.7445425195674
 20
-466.9171560699508
 30
0.0
 10
464.7445425195674
 20
-466.2432001439723
 30
0.0
 10
464.3842316188509
 20
-465.6191889590798
 30
0.0
 10
463.8003451380866
 20
-465.2816645184859
 30
0.0
 10
463.2153822620426
 20
-464.9441400778913
 30
0.0
 10
462.4958534158141
 20
-464.9441400778913
 30
0.0
 10
461.9108905397701
 20
-465.2816645184859
 30
0.0
 10
461.3270206189344
 20
-465.6191889590798
 30
0.0
 10
460.9667097182141
 20
-466.2432001439723
 30
0.0
 10
460.9667097182141
 20
-466.9171560699508
 30
0.0
 10
460.9667097182141
 20
-467.5922049511393
 30
0.0
 10
461.3270206189344
 20
-468.2162492558862
 30
0.0
 10
461.9108905397701
 20
-468.5537405766257
 30
0.0
 10
462.4958534158141
 20
-468.89126501722
 30
0.0
 10
463.2153822620426
 20
-468.89126501722
 30
0.0
 10
463.8003451380866
 20
-468.5537405766257
 30
0.0
 10
464.3842316188509
 20
-468.2162492558862
 30
0.0
 10
464.7445425195674
 20
-467.5922049511393
 30
0.0
 10
464.7445425195674
 20
-466.9171560699508
 30
0.0
  0
SPLINE
  5
419
330
159
100
AcDbEntity
  8
Drawing
 62
   250
420
  1842203
370
    80
100
AcDbSpline
210
0.0
220
0.0
230
1.0
 70
     8
 71
     3
 72
    11
 73
     7
 74
     0
 42
0.0000000001
 43
0.0000000001
 12
1.0
 22
0.0
 32
0.0
 13
1.0
 23
0.0
 33
0.0
 40
0.0
 40
0.0
 40
0.0
 40
0.0
 40
1.0
 40
1.0
 40
1.0
 40
2.0
 40
2.0
 40
2.0
 40
2.0
 10
423.2307419990034
 20
-615.4213522001476
 30
0.0
 10
423.2307419990034
 20
-617.5430597804761
 30
0.0
 10
424.0729136676763
 20
-619.5779436613627
 30
0.0
 10
425.5738392489571
 20
-621.0777762874345
 30
0.0
 10
427.0736884349582
 20
-622.5776254734355
 30
0.0
 10
429.1085723158454
 20
-623.4208900973163
 30
0.0
 10
431.2302798961721
 20
-623.4208900973163
 30
0.0
  0
SPLINE
  5
41A
330
159
100
AcDbEntity
  8
Drawing
 62
   250
420
  1842203
370
    80
100
AcDbSpline
210
0.0
220
0.0
230
1.0
 70
     8
 71
     3
 72
    11
 73
     7
 74
     0
 42
0.0000000001
 43
0.0000000001
 12
1.0
 22
0.0
 32
0.0
 13
1.0
 23
0.0
 33
0.0
 40
0.0
 40
0.0
 40
0.0
 40
0.0
 40
1.0
 40
1.0
 40
1.0
 40
2.0
 40
2.0
 40
2.0
 40
2.0
 10
579.2309051935728
 20
-623.4208900973163
 30
0.0
 10
581.3525962139747
 20
-623.4208900973163
 30
0.0
 10
583.3874800948626
 20
-622.5776254734355
 30
0.0
 10
584.8873127209343
 20
-621.0777762874345
 30
0.0
 10
586.3871784668634
 20
-619.5779436613627
 30
0.0
 10
587.2304430907415
 20
-617.5430597804761
 30
0.0
 10
587.2304430907415
 20
-615.4213522001476
 30
0.0
  0
SPLINE
  5
41B
330
159
100
AcDbEntity
  8
Drawing
 62
   250
420
  1842203
370
    80
100
AcDbSpline
210
0.0
220
0.0
230
1.0
 70
     8
 71
     3
 72
    11
 73
     7
 74
     0
 42
0.0000000001
 43
0.0000000001
 12
1.0
 22
0.0
 32
0.0
 13
1.0
 23
0.0
 33
0.0
 40
0.0
 40
0.0
 40
0.0
 40
0.0
 40
1.0
 40
1.0
 40
1.0
 40
2.0
 40
2.0
 40
2.0
 40
2.0
 10
587.2304430907415
 20
-467.4207434626732
 30
0.0
 10
587.2304430907415
 20
-465.2990193224173
 30
0.0
 10
586.3871784668634
 20
-463.2641354415314
 30
0.0
 10
584.8873127209343
 20
-461.764302815459
 30
0.0
 10
583.3874800948626
 20
-460.2633772341762
 30
0.0
 10
581.3525962139747
 20
-459.4212055655052
 30
0.0
 10
579.2309051935728
 20
-459.4212055655052
 30
0.0
  0
SPLINE
  5
41C
330
159
100
AcDbEntity
  8
Drawing
 62
   250
420
  1842203
370
    80
100
AcDbSpline
210
0.0
220
0.0
230
1.0
 70
     8
 71
     3
 72
    11
 73
     7
 74
     0
 42
0.0000000001
 43
0.0000000001
 12
1.0
 22
0.0
 32
0.0
 13
1.0
 23
0.0
 33
0.0
 40
0.0
 40
0.0
 40
0.0
 40
0.0
 40
1.0
 40
1.0
 40
1.0
 40
2.0
 40
2.0
 40
2.0
 40
2.0
 10
431.2302798961721
 20
-459.4212055655052
 30
0.0
 10
429.1085723158454
 20
-459.4212055655052
 30
0.0
 10
427.0736884349582
 20
-460.2633772341762
 30
0.0
 10
425.5738392489571
 20
-461.764302815459
 30
0.0
 10
424.0729136676763
 20
-463.2641354415314
 30
0.0
 10
423.2307419990034
 20
-465.2990193224173
 30
0.0
 10
423.2307419990034
 20
-467.4207434626732
 30
0.0
  0
SPLINE
  5
41D
330
159
100
AcDbEntity
  8
Drawing
 62
   250
420
  1842203
370
    80
100
AcDbSpline
210
0.0
220
0.0
230
1.0
 70
     8
 71
     3
 72
    11
 73
     7
 74
     0
 42
0.0000000001
 43
0.0000000001
 12
1.0
 22
0.0
 32
0.0
 13
1.0
 23
0.0
 33
0.0
 40
0.0
 40
0.0
 40
0.0
 40
0.0
 40
1.0
 40
1.0
 40
1.0
 40
2.0
 40
2.0
 40
2.0
 40
2.0
 10
431.2302798961721
 20
-457.4210312924831
 30
0.0
 10
428.5778763219401
 20
-457.4210312924831
 30
0.0
 10
426.0350829072769
 20
-458.4748388335317
 30
0.0
 10
424.1597373671196
 20
-460.3501843736915
 30
0.0
 10
422.2843918269585
 20
-462.2255299138508
 30
0.0
 10
421.2305842859096
 20
-464.7683398884425
 30
0.0
 10
421.2305842859096
 20
-467.4207434626732
 30
0.0
  0
SPLINE
  5
41E
330
159
100
AcDbEntity
  8
Drawing
 62
   250
420
  1842203
370
    80
100
AcDbSpline
210
0.0
220
0.0
230
1.0
 70
     8
 71
     3
 72
    11
 73
     7
 74
     0
 42
0.0000000001
 43
0.0000000001
 12
1.0
 22
0.0
 32
0.0
 13
1.0
 23
0.0
 33
0.0
 40
0.0
 40
0.0
 40
0.0
 40
0.0
 40
1.0
 40
1.0
 40
1.0
 40
2.0
 40
2.0
 40
2.0
 40
2.0
 10
589.2305842439112
 20
-467.4207434626732
 30
0.0
 10
589.2305842439112
 20
-464.7683398884425
 30
0.0
 10
588.1767767028609
 20
-462.2255299138508
 30
0.0
 10
586.3014311627011
 20
-460.3501843736915
 30
0.0
 10
584.4260856225438
 20
-458.4748388335317
 30
0.0
 10
581.8822158125964
 20
-457.4210312924831
 30
0.0
 10
579.2309051935728
 20
-457.4210312924831
 30
0.0
  0
SPLINE
  5
41F
330
159
100
AcDbEntity
  8
Drawing
 62
   250
420
  1842203
370
    80
100
AcDbSpline
210
0.0
220
0.0
230
1.0
 70
     8
 71
     3
 72
    11
 73
     7
 74
     0
 42
0.0000000001
 43
0.0000000001
 12
1.0
 22
0.0
 32
0.0
 13
1.0
 23
0.0
 33
0.0
 40
0.0
 40
0.0
 40
0.0
 40
0.0
 40
1.0
 40
1.0
 40
1.0
 40
2.0
 40
2.0
 40
2.0
 40
2.0
 10
579.2309051935728
 20
-625.4210312504835
 30
0.0
 10
581.8822158125964
 20
-625.4210312504835
 30
0.0
 10
584.4260856225438
 20
-624.3672402693625
 30
0.0
 10
586.3014311627011
 20
-622.4918947292026
 30
0.0
 10
588.1767767028609
 20
-620.6165491890428
 30
0.0
 10
589.2305842439112
 20
-618.0726628191699
 30
0.0
 10
589.2305842439112
 20
-615.4213522001476
 30
0.0
  0
SPLINE
  5
420
330
159
100
AcDbEntity
  8
Drawing
 62
   250
420
  1842203
370
    80
100
AcDbSpline
210
0.0
220
0.0
230
1.0
 70
     8
 71
     3
 72
    11
 73
     7
 74
     0
 42
0.0000000001
 43
0.0000000001
 12
1.0
 22
0.0
 32
0.0
 13
1.0
 23
0.0
 33
0.0
 40
0.0
 40
0.0
 40
0.0
 40
0.0
 40
1.0
 40
1.0
 40
1.0
 40
2.0
 40
2.0
 40
2.0
 40
2.0
 10
421.2305842859096
 20
-615.4213522001476
 30
0.0
 10
421.2305842859096
 20
-618.0726628191699
 30
0.0
 10
422.2843918269585
 20
-620.6165491890428
 30
0.0
 10
424.1597373671196
 20
-622.4918947292026
 30
0.0
 10
426.0350829072769
 20
-624.3672402693625
 30
0.0
 10
428.5778763219401
 20
-625.4210312504835
 30
0.0
 10
431.2302798961721
 20
-625.4210312504835
 30
0.0
  0
POLYLINE
  5
421
330
159
100
AcDbEntity
  8
Drawing
 62
   250
420
  1842203
370
    80
100
AcDb2dPolyline
 66
     1
 10
0.0
 20
0.0
 30
0.0
  0
VERTEX
  5
422
330
421
100
AcDbEntity
  8
Drawing
 62
   250
420
  1842203
370
    80
100
AcDbVertex
100
AcDb2dVertex
 10
423.2307419990034
 20
-615.4213522001476
 30
0.0
  0
VERTEX
  5
423
330
421
100
AcDbEntity
  8
Drawing
 62
   250
420
  1842203
370
    80
100
AcDbVertex
100
AcDb2dVertex
 10
423.2307419990034
 20
-541.4709760125704
 30
0.0
  0
SEQEND
  5
424
330
421
100
AcDbEntity
  8
Drawing
 62
   250
420
  1842203
370
    80
  0
POLYLINE
  5
425
330
159
100
AcDbEntity
  8
Drawing
 62
   250
420
  1842203
370
    80
100
AcDb2dPolyline
 66
     1
 10
0.0
 20
0.0
 30
0.0
  0
VERTEX
  5
426
330
425
100
AcDbEntity
  8
Drawing
 62
   250
420
  1842203
370
    80
100
AcDbVertex
100
AcDb2dVertex
 10
579.2309051935728
 20
-623.4208900973163
 30
0.0
  0
VERTEX
  5
427
330
425
100
AcDbEntity
  8
Drawing
 62
   250
420
  1842203
370
    80
100
AcDbVertex
100
AcDb2dVertex
 10
431.2302798961721
 20
-623.4208900973163
 30
0.0
  0
SEQEND
  5
428
330
425
100
AcDbEntity
  8
Drawing
 62
   250
420
  1842203
370
    80
  0
POLYLINE
  5
429
330
159
100
AcDbEntity
  8
Drawing
 62
   250
420
  1842203
370
    80
100
AcDb2dPolyline
 66
     1
 10
0.0
 20
0.0
 30
0.0
  0
VERTEX
  5
42A
330
429
100
AcDbEntity
  8
Drawing
 62
   250
420
  1842203
370
    80
100
AcDbVertex
100
AcDb2dVertex
 10
587.2304430907415
 20
-467.4207434626732
 30
0.0
  0
VERTEX
  5
42B
330
429
100
AcDbEntity
  8
Drawing
 62
   250
420
  1842203
370
    80
100
AcDbVertex
100
AcDb2dVertex
 10
587.2304430907415
 20
-615.4213522001476
 30
0.0
  0
SEQEND
  5
42C
330
429
100
AcDbEntity
  8
Drawing
 62
   250
420
  1842203
370
    80
  0
POLYLINE
  5
42D
330
159
100
AcDbEntity
  8
Drawing
 62
   250
420
  1842203
370
    80
100
AcDb2dPolyline
 66
     1
 10
0.0
 20
0.0
 30
0.0
  0
VERTEX
  5
42E
330
42D
100
AcDbEntity
  8
Drawing
 62
   250
420
  1842203
370
    80
100
AcDbVertex
100
AcDb2dVertex
 10
476.8822075588806
 20
-459.4212055655052
 30
0.0
  0
VERTEX
  5
42F
330
42D
100
AcDbEntity
  8
Drawing
 62
   250
420
  1842203
370
    80
100
AcDbVertex
100
AcDb2dVertex
 10
579.2309051935728
 20
-459.4212055655052
 30
0.0
  0
SEQEND
  5
430
330
42D
100
AcDbEntity
  8
Drawing
 62
   250
420
  1842203
370
    80
  0
POLYLINE
  5
431
330
159
100
AcDbEntity
  8
Drawing
 62
   250
420
  1842203
370
    80
100
AcDb2dPolyline
 66
     1
 10
0.0
 20
0.0
 30
0.0
  0
VERTEX
  5
432
330
431
100
AcDbEntity
  8
Drawing
 62
   250
420
  1842203
370
    80
100
AcDbVertex
100
AcDb2dVertex
 10
431.2302798961721
 20
-459.4212055655052
 30
0.0
  0
VERTEX
  5
433
330
431
100
AcDbEntity
  8
Drawing
 62
   250
420
  1842203
370
    80
100
AcDbVertex
100
AcDb2dVertex
 10
433.2803492304996
 20
-459.4212055655052
 30
0.0
  0
SEQEND
  5
434
330
431
100
AcDbEntity
  8
Drawing
 62
   250
420
  1842203
370
    80
  0
POLYLINE
  5
435
330
159
100
AcDbEntity
  8
Drawing
 62
   250
420
  1842203
370
    80
100
AcDb2dPolyline
 66
     1
 10
0.0
 20
0.0
 30
0.0
  0
VERTEX
  5
436
330
435
100
AcDbEntity
  8
Drawing
 62
   250
420
  1842203
370
    80
100
AcDbVertex
100
AcDb2dVertex
 10
423.2307419990034
 20
-541.3711196502508
 30
0.0
  0
VERTEX
  5
437
330
435
100
AcDbEntity
  8
Drawing
 62
   250
420
  1842203
370
    80
100
AcDbVertex
100
AcDb2dVertex
 10
423.2307419990034
 20
-467.4207434626732
 30
0.0
  0
SEQEND
  5
438
330
435
100
AcDbEntity
  8
Drawing
 62
   250
420
  1842203
370
    80
  0
POLYLINE
  5
439
330
159
100
AcDbEntity
  8
Drawing
 62
   250
420
  1842203
370
    80
100
AcDb2dPolyline
 66
     1
 10
0.0
 20
0.0
 30
0.0
  0
VERTEX
  5
43A
330
439
100
AcDbEntity
  8
Drawing
 62
   250
420
  1842203
370
    80
100
AcDbVertex
100
AcDb2dVertex
 10
421.2305842859096
 20
-467.4207434626732
 30
0.0
  0
VERTEX
  5
43B
330
439
100
AcDbEntity
  8
Drawing
 62
   250
420
  1842203
370
    80
100
AcDbVertex
100
AcDb2dVertex
 10
421.2305842859096
 20
-541.3711196502508
 30
0.0
  0
SEQEND
  5
43C
330
439
100
AcDbEntity
  8
Drawing
 62
   250
420
  1842203
370
    80
  0
POLYLINE
  5
43D
330
159
100
AcDbEntity
  8
Drawing
 62
   250
420
  1842203
370
    80
100
AcDb2dPolyline
 66
     1
 10
0.0
 20
0.0
 30
0.0
  0
VERTEX
  5
43E
330
43D
100
AcDbEntity
  8
Drawing
 62
   250
420
  1842203
370
    80
100
AcDbVertex
100
AcDb2dVertex
 10
579.2309051935728
 20
-457.4210312924831
 30
0.0
  0
VERTEX
  5
43F
330
43D
100
AcDbEntity
  8
Drawing
 62
   250
420
  1842203
370
    80
100
AcDbVertex
100
AcDb2dVertex
 10
431.2302798961721
 20
-457.4210312924831
 30
0.0
  0
SEQEND
  5
440
330
43D
100
AcDbEntity
  8
Drawing
 62
   250
420
  1842203
370
    80
  0
POLYLINE
  5
441
330
159
100
AcDbEntity
  8
Drawing
 62
   250
420
  1842203
370
    80
100
AcDb2dPolyline
 66
     1
 10
0.0
 20
0.0
 30
0.0
  0
VERTEX
  5
442
330
441
100
AcDbEntity
  8
Drawing
 62
   250
420
  1842203
370
    80
100
AcDbVertex
100
AcDb2dVertex
 10
589.2305842439112
 20
-615.4213522001476
 30
0.0
  0
VERTEX
  5
443
330
441
100
AcDbEntity
  8
Drawing
 62
   250
420
  1842203
370
    80
100
AcDbVertex
100
AcDb2dVertex
 10
589.2305842439112
 20
-467.4207434626732
 30
0.0
  0
SEQEND
  5
444
330
441
100
AcDbEntity
  8
Drawing
 62
   250
420
  1842203
370
    80
  0
POLYLINE
  5
445
330
159
100
AcDbEntity
  8
Drawing
 62
   250
420
  1842203
370
    80
100
AcDb2dPolyline
 66
     1
 10
0.0
 20
0.0
 30
0.0
  0
VERTEX
  5
446
330
445
100
AcDbEntity
  8
Drawing
 62
   250
420
  1842203
370
    80
100
AcDbVertex
100
AcDb2dVertex
 10
431.2302798961721
 20
-625.4210312504835
 30
0.0
  0
VERTEX
  5
447
330
445
100
AcDbEntity
  8
Drawing
 62
   250
420
  1842203
370
    80
100
AcDbVertex
100
AcDb2dVertex
 10
579.2309051935728
 20
-625.4210312504835
 30
0.0
  0
SEQEND
  5
448
330
445
100
AcDbEntity
  8
Drawing
 62
   250
420
  1842203
370
    80
  0
POLYLINE
  5
449
330
159
100
AcDbEntity
  8
Drawing
 62
   250
420
  1842203
370
    80
100
AcDb2dPolyline
 66
     1
 10
0.0
 20
0.0
 30
0.0
  0
VERTEX
  5
44A
330
449
100
AcDbEntity
  8
Drawing
 62
   250
420
  1842203
370
    80
100
AcDbVertex
100
AcDb2dVertex
 10
423.2307419990034
 20
-541.4709760125704
 30
0.0
  0
VERTEX
  5
44B
330
449
100
AcDbEntity
  8
Drawing
 62
   250
420
  1842203
370
    80
100
AcDbVertex
100
AcDb2dVertex
 10
421.2305842859096
 20
-541.4709760125704
 30
0.0
  0
VERTEX
  5
44C
330
449
100
AcDbEntity
  8
Drawing
 62
   250
420
  1842203
370
    80
100
AcDbVertex
100
AcDb2dVertex
 10
421.2305842859096
 20
-615.4213522001476
 30
0.0
  0
SEQEND
  5
44D
330
449
100
AcDbEntity
  8
Drawing
 62
   250
420
  1842203
370
    80
  0
POLYLINE
  5
44E
330
159
100
AcDbEntity
  8
Drawing
 62
   250
420
  1842203
370
    80
100
AcDb2dPolyline
 66
     1
 10
0.0
 20
0.0
 30
0.0
  0
VERTEX
  5
44F
330
44E
100
AcDbEntity
  8
Drawing
 62
   250
420
  1842203
370
    80
100
AcDbVertex
100
AcDb2dVertex
 10
421.2305842859096
 20
-541.3711196502508
 30
0.0
  0
VERTEX
  5
450
330
44E
100
AcDbEntity
  8
Drawing
 62
   250
420
  1842203
370
    80
100
AcDbVertex
100
AcDb2dVertex
 10
423.2307419990034
 20
-541.3711196502508
 30
0.0
  0
SEQEND
  5
451
330
44E
100
AcDbEntity
  8
Drawing
 62
   250
420
  1842203
370
    80
  0
POLYLINE
  5
452
330
159
100
AcDbEntity
  8
Drawing
 62
   250
420
  1842203
370
    80
100
AcDb2dPolyline
 66
     1
 10
0.0
 20
0.0
 30
0.0
  0
VERTEX
  5
453
330
452
100
AcDbEntity
  8
Drawing
 62
   250
420
  1842203
370
    80
100
AcDbVertex
100
AcDb2dVertex
 10
587.2304430907415
 20
-602.921190349696
 30
0.0
  0
VERTEX
  5
454
330
452
100
AcDbEntity
  8
Drawing
 62
   250
420
  1842203
370
    80
100
AcDbVertex
100
AcDb2dVertex
 10
423.2307419990034
 20
-602.921190349696
 30
0.0
  0
VERTEX
  5
455
330
452
100
AcDbEntity
  8
Drawing
 62
   250
420
  1842203
370
    80
100
AcDbVertex
100
AcDb2dVertex
 10
423.2307419990034
 20
-604.921348062791
 30
0.0
  0
SEQEND
  5
456
330
452
100
AcDbEntity
  8
Drawing
 62
   250
420
  1842203
370
    80
  0
POLYLINE
  5
457
330
159
100
AcDbEntity
  8
Drawing
 62
   250
420
  1842203
370
    80
100
AcDb2dPolyline
 66
     1
 10
0.0
 20
0.0
 30
0.0
  0
VERTEX
  5
458
330
457
100
AcDbEntity
  8
Drawing
 62
   250
420
  1842203
370
    80
100
AcDbVertex
100
AcDb2dVertex
 10
423.2307419990034
 20
-604.921348062791
 30
0.0
  0
VERTEX
  5
459
330
457
100
AcDbEntity
  8
Drawing
 62
   250
420
  1842203
370
    80
100
AcDbVertex
100
AcDb2dVertex
 10
587.2304430907415
 20
-604.921348062791
 30
0.0
  0
SEQEND
  5
45A
330
457
100
AcDbEntity
  8
Drawing
 62
   250
420
  1842203
370
    80
  0
POLYLINE
  5
45B
330
159
100
AcDbEntity
  8
Drawing
 62
   250
420
  1842203
370
    80
100
AcDb2dPolyline
 66
     1
 10
0.0
 20
0.0
 30
0.0
  0
VERTEX
  5
45C
330
45B
100
AcDbEntity
  8
Drawing
 62
   250
420
  1842203
370
    80
100
AcDbVertex
100
AcDb2dVertex
 10
587.2304430907415
 20
-604.921348062791
 30
0.0
  0
VERTEX
  5
45D
330
45B
100
AcDbEntity
  8
Drawing
 62
   250
420
  1842203
370
    80
100
AcDbVertex
100
AcDb2dVertex
 10
587.2304430907415
 20
-602.921190349696
 30
0.0
  0
SEQEND
  5
45E
330
45B
100
AcDbEntity
  8
Drawing
 62
   250
420
  1842203
370
    80
  0
POLYLINE
  5
45F
330
159
100
AcDbEntity
  8
Drawing
 62
   250
420
  1842203
370
    80
100
AcDb2dPolyline
 66
     1
 10
0.0
 20
0.0
 30
0.0
  0
VERTEX
  5
460
330
45F
100
AcDbEntity
  8
Drawing
 62
   250
420
  1842203
370
    80
100
AcDbVertex
100
AcDb2dVertex
 10
587.2304430907415
 20
-577.9208997686487
 30
0.0
  0
VERTEX
  5
461
330
45F
100
AcDbEntity
  8
Drawing
 62
   250
420
  1842203
370
    80
100
AcDbVertex
100
AcDb2dVertex
 10
423.2307419990034
 20
-577.9208997686487
 30
0.0
  0
VERTEX
  5
462
330
45F
100
AcDbEntity
  8
Drawing
 62
   250
420
  1842203
370
    80
100
AcDbVertex
100
AcDb2dVertex
 10
423.2307419990034
 20
-579.9210409218158
 30
0.0
  0
SEQEND
  5
463
330
45F
100
AcDbEntity
  8
Drawing
 62
   250
420
  1842203
370
    80
  0
POLYLINE
  5
464
330
159
100
AcDbEntity
  8
Drawing
 62
   250
420
  1842203
370
    80
100
AcDb2dPolyline
 66
     1
 10
0.0
 20
0.0
 30
0.0
  0
VERTEX
  5
465
330
464
100
AcDbEntity
  8
Drawing
 62
   250
420
  1842203
370
    80
100
AcDbVertex
100
AcDb2dVertex
 10
423.2307419990034
 20
-579.9210409218158
 30
0.0
  0
VERTEX
  5
466
330
464
100
AcDbEntity
  8
Drawing
 62
   250
420
  1842203
370
    80
100
AcDbVertex
100
AcDb2dVertex
 10
587.2304430907415
 20
-579.9210409218158
 30
0.0
  0
SEQEND
  5
467
330
464
100
AcDbEntity
  8
Drawing
 62
   250
420
  1842203
370
    80
  0
POLYLINE
  5
468
330
159
100
AcDbEntity
  8
Drawing
 62
   250
420
  1842203
370
    80
100
AcDb2dPolyline
 66
     1
 10
0.0
 20
0.0
 30
0.0
  0
VERTEX
  5
469
330
468
100
AcDbEntity
  8
Drawing
 62
   250
420
  1842203
370
    80
100
AcDbVertex
100
AcDb2dVertex
 10
587.2304430907415
 20
-579.9210409218158
 30
0.0
  0
VERTEX
  5
46A
330
468
100
AcDbEntity
  8
Drawing
 62
   250
420
  1842203
370
    80
100
AcDbVertex
100
AcDb2dVertex
 10
587.2304430907415
 20
-577.9208997686487
 30
0.0
  0
SEQEND
  5
46B
330
468
100
AcDbEntity
  8
Drawing
 62
   250
420
  1842203
370
    80
  0
POLYLINE
  5
46C
330
159
100
AcDbEntity
  8
Drawing
 62
   250
420
  1842203
370
    80
100
AcDb2dPolyline
 66
     1
 10
0.0
 20
0.0
 30
0.0
  0
VERTEX
  5
46D
330
46C
100
AcDbEntity
  8
Drawing
 62
   250
420
  1842203
370
    80
100
AcDbVertex
100
AcDb2dVertex
 10
587.2304430907415
 20
-552.9205760677468
 30
0.0
  0
VERTEX
  5
46E
330
46C
100
AcDbEntity
  8
Drawing
 62
   250
420
  1842203
370
    80
100
AcDbVertex
100
AcDb2dVertex
 10
423.2307419990034
 20
-552.9205760677468
 30
0.0
  0
VERTEX
  5
46F
330
46C
100
AcDbEntity
  8
Drawing
 62
   250
420
  1842203
370
    80
100
AcDbVertex
100
AcDb2dVertex
 10
423.2307419990034
 20
-554.9207503407686
 30
0.0
  0
SEQEND
  5
470
330
46C
100
AcDbEntity
  8
Drawing
 62
   250
420
  1842203
370
    80
  0
POLYLINE
  5
471
330
159
100
AcDbEntity
  8
Drawing
 62
   250
420
  1842203
370
    80
100
AcDb2dPolyline
 66
     1
 10
0.0
 20
0.0
 30
0.0
  0
VERTEX
  5
472
330
471
100
AcDbEntity
  8
Drawing
 62
   250
420
  1842203
370
    80
100
AcDbVertex
100
AcDb2dVertex
 10
423.2307419990034
 20
-554.9207503407686
 30
0.0
  0
VERTEX
  5
473
330
471
100
AcDbEntity
  8
Drawing
 62
   250
420
  1842203
370
    80
100
AcDbVertex
100
AcDb2dVertex
 10
587.2304430907415
 20
-554.9207503407686
 30
0.0
  0
SEQEND
  5
474
330
471
100
AcDbEntity
  8
Drawing
 62
   250
420
  1842203
370
    80
  0
POLYLINE
  5
475
330
159
100
AcDbEntity
  8
Drawing
 62
   250
420
  1842203
370
    80
100
AcDb2dPolyline
 66
     1
 10
0.0
 20
0.0
 30
0.0
  0
VERTEX
  5
476
330
475
100
AcDbEntity
  8
Drawing
 62
   250
420
  1842203
370
    80
100
AcDbVertex
100
AcDb2dVertex
 10
587.2304430907415
 20
-554.9207503407686
 30
0.0
  0
VERTEX
  5
477
330
475
100
AcDbEntity
  8
Drawing
 62
   250
420
  1842203
370
    80
100
AcDbVertex
100
AcDb2dVertex
 10
587.2304430907415
 20
-552.9205760677468
 30
0.0
  0
SEQEND
  5
478
330
475
100
AcDbEntity
  8
Drawing
 62
   250
420
  1842203
370
    80
  0
POLYLINE
  5
479
330
159
100
AcDbEntity
  8
Drawing
 62
   250
420
  1842203
370
    80
100
AcDb2dPolyline
 66
     1
 10
0.0
 20
0.0
 30
0.0
  0
VERTEX
  5
47A
330
479
100
AcDbEntity
  8
Drawing
 62
   250
420
  1842203
370
    80
100
AcDbVertex
100
AcDb2dVertex
 10
587.2304430907415
 20
-527.9213453220533
 30
0.0
  0
VERTEX
  5
47B
330
479
100
AcDbEntity
  8
Drawing
 62
   250
420
  1842203
370
    80
100
AcDbVertex
100
AcDb2dVertex
 10
423.2307419990034
 20
-527.9213453220533
 30
0.0
  0
VERTEX
  5
47C
330
479
100
AcDbEntity
  8
Drawing
 62
   250
420
  1842203
370
    80
100
AcDbVertex
100
AcDb2dVertex
 10
423.2307419990034
 20
-529.9204266398654
 30
0.0
  0
SEQEND
  5
47D
330
479
100
AcDbEntity
  8
Drawing
 62
   250
420
  1842203
370
    80
  0
POLYLINE
  5
47E
330
159
100
AcDbEntity
  8
Drawing
 62
   250
420
  1842203
370
    80
100
AcDb2dPolyline
 66
     1
 10
0.0
 20
0.0
 30
0.0
  0
VERTEX
  5
47F
330
47E
100
AcDbEntity
  8
Drawing
 62
   250
420
  1842203
370
    80
100
AcDbVertex
100
AcDb2dVertex
 10
423.2307419990034
 20
-529.9204266398654
 30
0.0
  0
VERTEX
  5
480
330
47E
100
AcDbEntity
  8
Drawing
 62
   250
420
  1842203
370
    80
100
AcDbVertex
100
AcDb2dVertex
 10
587.2304430907415
 20
-529.9204266398654
 30
0.0
  0
SEQEND
  5
481
330
47E
100
AcDbEntity
  8
Drawing
 62
   250
420
  1842203
370
    80
  0
POLYLINE
  5
482
330
159
100
AcDbEntity
  8
Drawing
 62
   250
420
  1842203
370
    80
100
AcDb2dPolyline
 66
     1
 10
0.0
 20
0.0
 30
0.0
  0
VERTEX
  5
483
330
482
100
AcDbEntity
  8
Drawing
 62
   250
420
  1842203
370
    80
100
AcDbVertex
100
AcDb2dVertex
 10
587.2304430907415
 20
-529.9204266398654
 30
0.0
  0
VERTEX
  5
484
330
482
100
AcDbEntity
  8
Drawing
 62
   250
420
  1842203
370
    80
100
AcDbVertex
100
AcDb2dVertex
 10
587.2304430907415
 20
-527.9213453220533
 30
0.0
  0
SEQEND
  5
485
330
482
100
AcDbEntity
  8
Drawing
 62
   250
420
  1842203
370
    80
  0
POLYLINE
  5
486
330
159
100
AcDbEntity
  8
Drawing
 62
   250
420
  1842203
370
    80
100
AcDb2dPolyline
 66
     1
 10
0.0
 20
0.0
 30
0.0
  0
VERTEX
  5
487
330
486
100
AcDbEntity
  8
Drawing
 62
   250
420
  1842203
370
    80
100
AcDbVertex
100
AcDb2dVertex
 10
587.2304430907415
 20
-502.921054741006
 30
0.0
  0
VERTEX
  5
488
330
486
100
AcDbEntity
  8
Drawing
 62
   250
420
  1842203
370
    80
100
AcDbVertex
100
AcDb2dVertex
 10
423.2307419990034
 20
-502.921054741006
 30
0.0
  0
VERTEX
  5
489
330
486
100
AcDbEntity
  8
Drawing
 62
   250
420
  1842203
370
    80
100
AcDbVertex
100
AcDb2dVertex
 10
423.2307419990034
 20
-504.9211958941718
 30
0.0
  0
SEQEND
  5
48A
330
486
100
AcDbEntity
  8
Drawing
 62
   250
420
  1842203
370
    80
  0
POLYLINE
  5
48B
330
159
100
AcDbEntity
  8
Drawing
 62
   250
420
  1842203
370
    80
100
AcDb2dPolyline
 66
     1
 10
0.0
 20
0.0
 30
0.0
  0
VERTEX
  5
48C
330
48B
100
AcDbEntity
  8
Drawing
 62
   250
420
  1842203
370
    80
100
AcDbVertex
100
AcDb2dVertex
 10
423.2307419990034
 20
-504.9211958941718
 30
0.0
  0
VERTEX
  5
48D
330
48B
100
AcDbEntity
  8
Drawing
 62
   250
420
  1842203
370
    80
100
AcDbVertex
100
AcDb2dVertex
 10
587.2304430907415
 20
-504.9211958941718
 30
0.0
  0
SEQEND
  5
48E
330
48B
100
AcDbEntity
  8
Drawing
 62
   250
420
  1842203
370
    80
  0
POLYLINE
  5
48F
330
159
100
AcDbEntity
  8
Drawing
 62
   250
420
  1842203
370
    80
100
AcDb2dPolyline
 66
     1
 10
0.0
 20
0.0
 30
0.0
  0
VERTEX
  5
490
330
48F
100
AcDbEntity
  8
Drawing
 62
   250
420
  1842203
370
    80
100
AcDbVertex
100
AcDb2dVertex
 10
587.2304430907415
 20
-504.9211958941718
 30
0.0
  0
VERTEX
  5
491
330
48F
100
AcDbEntity
  8
Drawing
 62
   250
420
  1842203
370
    80
100
AcDbVertex
100
AcDb2dVertex
 10
587.2304430907415
 20
-502.921054741006
 30
0.0
  0
SEQEND
  5
492
330
48F
100
AcDbEntity
  8
Drawing
 62
   250
420
  1842203
370
    80
  0
POLYLINE
  5
493
330
159
100
AcDbEntity
  8
Drawing
 62
   250
420
  1842203
370
    80
100
AcDb2dPolyline
 66
     1
 10
0.0
 20
0.0
 30
0.0
  0
VERTEX
  5
494
330
493
100
AcDbEntity
  8
Drawing
 62
   250
420
  1842203
370
    80
100
AcDbVertex
100
AcDb2dVertex
 10
587.2304430907415
 20
-477.9207310401031
 30
0.0
  0
VERTEX
  5
495
330
493
100
AcDbEntity
  8
Drawing
 62
   250
420
  1842203
370
    80
100
AcDbVertex
100
AcDb2dVertex
 10
423.2307419990034
 20
-477.9207310401031
 30
0.0
  0
VERTEX
  5
496
330
493
100
AcDbEntity
  8
Drawing
 62
   250
420
  1842203
370
    80
100
AcDbVertex
100
AcDb2dVertex
 10
423.2307419990034
 20
-479.9208721932695
 30
0.0
  0
SEQEND
  5
497
330
493
100
AcDbEntity
  8
Drawing
 62
   250
420
  1842203
370
    80
  0
POLYLINE
  5
498
330
159
100
AcDbEntity
  8
Drawing
 62
   250
420
  1842203
370
    80
100
AcDb2dPolyline
 66
     1
 10
0.0
 20
0.0
 30
0.0
  0
VERTEX
  5
499
330
498
100
AcDbEntity
  8
Drawing
 62
   250
420
  1842203
370
    80
100
AcDbVertex
100
AcDb2dVertex
 10
423.2307419990034
 20
-479.9208721932695
 30
0.0
  0
VERTEX
  5
49A
330
498
100
AcDbEntity
  8
Drawing
 62
   250
420
  1842203
370
    80
100
AcDbVertex
100
AcDb2dVertex
 10
587.2304430907415
 20
-479.9208721932695
 30
0.0
  0
SEQEND
  5
49B
330
498
100
AcDbEntity
  8
Drawing
 62
   250
420
  1842203
370
    80
  0
POLYLINE
  5
49C
330
159
100
AcDbEntity
  8
Drawing
 62
   250
420
  1842203
370
    80
100
AcDb2dPolyline
 66
     1
 10
0.0
 20
0.0
 30
0.0
  0
VERTEX
  5
49D
330
49C
100
AcDbEntity
  8
Drawing
 62
   250
420
  1842203
370
    80
100
AcDbVertex
100
AcDb2dVertex
 10
587.2304430907415
 20
-479.9208721932695
 30
0.0
  0
VERTEX
  5
49E
330
49C
100
AcDbEntity
  8
Drawing
 62
   250
420
  1842203
370
    80
100
AcDbVertex
100
AcDb2dVertex
 10
587.2304430907415
 20
-477.9207310401031
 30
0.0
  0
SEQEND
  5
49F
330
49C
100
AcDbEntity
  8
Drawing
 62
   250
420
  1842203
370
    80
  0
POLYLINE
  5
4A0
330
159
100
AcDbEntity
  8
Drawing
 62
   250
420
  1842203
370
    80
100
AcDb2dPolyline
 66
     1
 10
0.0
 20
0.0
 30
0.0
  0
VERTEX
  5
4A1
330
4A0
100
AcDbEntity
  8
Drawing
 62
   250
420
  1842203
370
    80
100
AcDbVertex
100
AcDb2dVertex
 10
435.0122112795609
 20
-474.420525421879
 30
0.0
  0
VERTEX
  5
4A2
330
4A0
100
AcDbEntity
  8
Drawing
 62
   250
420
  1842203
370
    80
100
AcDbVertex
100
AcDb2dVertex
 10
433.0142229169592
 20
-474.420525421879
 30
0.0
  0
SEQEND
  5
4A3
330
4A0
100
AcDbEntity
  8
Drawing
 62
   250
420
  1842203
370
    80
  0
POLYLINE
  5
4A4
330
159
100
AcDbEntity
  8
Drawing
 62
   250
420
  1842203
370
    80
100
AcDb2dPolyline
 66
     1
 10
0.0
 20
0.0
 30
0.0
  0
VERTEX
  5
4A5
330
4A4
100
AcDbEntity
  8
Drawing
 62
   250
420
  1842203
370
    80
100
AcDbVertex
100
AcDb2dVertex
 10
433.2801173915157
 20
-459.4209737265213
 30
0.0
  0
VERTEX
  5
4A6
330
4A4
100
AcDbEntity
  8
Drawing
 62
   250
420
  1842203
370
    80
100
AcDbVertex
100
AcDb2dVertex
 10
435.0122112795609
 20
-459.4209737265213
 30
0.0
  0
SEQEND
  5
4A7
330
4A4
100
AcDbEntity
  8
Drawing
 62
   250
420
  1842203
370
    80
  0
POLYLINE
  5
4A8
330
159
100
AcDbEntity
  8
Drawing
 62
   250
420
  1842203
370
    80
100
AcDb2dPolyline
 66
     1
 10
0.0
 20
0.0
 30
0.0
  0
VERTEX
  5
4A9
330
4A8
100
AcDbEntity
  8
Drawing
 62
   250
420
  1842203
370
    80
100
AcDbVertex
100
AcDb2dVertex
 10
477.1489548697008
 20
-474.420525421879
 30
0.0
  0
VERTEX
  5
4AA
330
4A8
100
AcDbEntity
  8
Drawing
 62
   250
420
  1842203
370
    80
100
AcDbVertex
100
AcDb2dVertex
 10
475.1498901118148
 20
-474.420525421879
 30
0.0
  0
SEQEND
  5
4AB
330
4A8
100
AcDbEntity
  8
Drawing
 62
   250
420
  1842203
370
    80
  0
POLYLINE
  5
4AC
330
159
100
AcDbEntity
  8
Drawing
 62
   250
420
  1842203
370
    80
100
AcDb2dPolyline
 66
     1
 10
0.0
 20
0.0
 30
0.0
  0
VERTEX
  5
4AD
330
4AC
100
AcDbEntity
  8
Drawing
 62
   250
420
  1842203
370
    80
100
AcDbVertex
100
AcDb2dVertex
 10
475.1498901118148
 20
-459.4209737265213
 30
0.0
  0
VERTEX
  5
4AE
330
4AC
100
AcDbEntity
  8
Drawing
 62
   250
420
  1842203
370
    80
100
AcDbVertex
100
AcDb2dVertex
 10
476.8819757198979
 20
-459.4209737265213
 30
0.0
  0
SEQEND
  5
4AF
330
4AC
100
AcDbEntity
  8
Drawing
 62
   250
420
  1842203
370
    80
  0
ENDBLK
  5
15C
330
159
100
AcDbEntity
  8
0
100
AcDbBlockEnd
  0
ENDSEC
  0
SECTION
  2
ENTITIES
  0
INSERT
  5
43
330
1F
100
AcDbEntity
  8
Drawing
100
AcDbBlockReference
  2
block 2
 10
0.0
 20
0.0
 30
0.0
  0
INSERT
  5
15A
330
1F
100
AcDbEntity
  8
Drawing
100
AcDbBlockReference
  2
block 30
 10
0.0
 20
0.0
 30
0.0
  0
ENDSEC
  0
SECTION
  2
OBJECTS
  0
DICTIONARY
  5
C
330
0
100
AcDbDictionary
281
     1
  3
ACAD_GROUP
350
D
  3
ACAD_LAYOUT
350
1A
  3
ACAD_MATERIAL
350
3B
  3
ACAD_MLEADERSTYLE
350
4B1
  3
ACAD_MLINESTYLE
350
17
  3
ACAD_PLOTSETTINGS
350
19
  3
ACAD_PLOTSTYLENAME
350
E
  3
ACAD_TABLESTYLE
350
4B0
  3
ACAD_VISUALSTYLE
350
2A
  0
SUN
  5
3F
330
29
100
AcDbSun
 90
        1
290
     0
 63
     7
421
 16777215
 40
1.0
291
     1
 91
  2455826
 92
 54000000
292
     0
 70
     2
 71
   256
280
     1
  0
DICTIONARY
  5
D
102
{ACAD_REACTORS
330
C
102
}
330
C
100
AcDbDictionary
281
     1
  0
DICTIONARY
  5
1A
102
{ACAD_REACTORS
330
C
102
}
330
C
100
AcDbDictionary
281
     1
  3
Layout1
350
1E
  3
Layout2
350
26
  3
Model
350
22
  0
DICTIONARY
  5
3B
102
{ACAD_REACTORS
330
C
102
}
330
C
100
AcDbDictionary
281
     1
  3
ByBlock
350
3D
  3
ByLayer
350
3C
  3
Global
350
3E
  0
DICTIONARY
  5
4B1
102
{ACAD_REACTORS
330
C
102
}
330
C
100
AcDbDictionary
281
     1
  0
DICTIONARY
  5
17
102
{ACAD_REACTORS
330
C
102
}
330
C
100
AcDbDictionary
281
     1
  3
Standard
350
18
  0
DICTIONARY
  5
19
102
{ACAD_REACTORS
330
C
102
}
330
C
100
AcDbDictionary
281
     1
  0
ACDBDICTIONARYWDFLT
  5
E
102
{ACAD_REACTORS
330
C
102
}
330
C
100
AcDbDictionary
281
     1
  3
Normal
350
F
100
AcDbDictionaryWithDefault
340
F
  0
DICTIONARY
  5
4B0
102
{ACAD_REACTORS
330
C
102
}
330
C
100
AcDbDictionary
281
     1
  0
DICTIONARY
  5
2A
102
{ACAD_REACTORS
330
C
102
}
330
C
100
AcDbDictionary
281
     1
  3
2dWireframe
350
2F
  3
3D Hidden
350
31
  3
3dWireframe
350
30
  3
Basic
350
32
  3
Brighten
350
36
  3
ColorChange
350
3A
  3
Conceptual
350
34
  3
Dim
350
35
  3
Facepattern
350
39
  3
Flat
350
2B
  3
FlatWithEdges
350
2C
  3
Gouraud
350
2D
  3
GouraudWithEdges
350
2E
  3
Linepattern
350
38
  3
Realistic
350
33
  3
Thicken
350
37
  0
LAYOUT
  5
1E
102
{ACAD_REACTORS
330
1A
102
}
330
1A
100
AcDbPlotSettings
  1

  2
none_device
  4

  6

 40
0.0
 41
0.0
 42
0.0
 43
0.0
 44
0.0
 45
0.0
 46
0.0
 47
0.0
 48
0.0
 49
0.0
140
0.0
141
0.0
142
1.0
143
1.0
 70
   688
 72
     0
 73
     0
 74
     5
  7

 75
    16
 76
     0
 77
     2
 78
   300
147
1.0
148
0.0
149
0.0
100
AcDbLayout
  1
Layout1
 70
     1
 71
     1
 10
0.0
 20
0.0
 11
12.0
 21
9.0
 12
0.0
 22
0.0
 32
0.0
 14
1.000000000000000E+20
 24
1.000000000000000E+20
 34
1.000000000000000E+20
 15
-1.000000000000000E+20
 25
-1.000000000000000E+20
 35
-1.000000000000000E+20
146
0.0
 13
0.0
 23
0.0
 33
0.0
 16
1.0
 26
0.0
 36
0.0
 17
0.0
 27
1.0
 37
0.0
 76
     0
330
1B
  0
LAYOUT
  5
26
102
{ACAD_REACTORS
330
1A
102
}
330
1A
100
AcDbPlotSettings
  1

  2
none_device
  4

  6

 40
0.0
 41
0.0
 42
0.0
 43
0.0
 44
0.0
 45
0.0
 46
0.0
 47
0.0
 48
0.0
 49
0.0
140
0.0
141
0.0
142
1.0
143
1.0
 70
   688
 72
     0
 73
     0
 74
     5
  7

 75
    16
 76
     0
 77
     2
 78
   300
147
1.0
148
0.0
149
0.0
100
AcDbLayout
  1
Layout2
 70
     1
 71
     2
 10
0.0
 20
0.0
 11
0.0
 21
0.0
 12
0.0
 22
0.0
 32
0.0
 14
0.0
 24
0.0
 34
0.0
 15
0.0
 25
0.0
 35
0.0
146
0.0
 13
0.0
 23
0.0
 33
0.0
 16
1.0
 26
0.0
 36
0.0
 17
0.0
 27
1.0
 37
0.0
 76
     0
330
23
  0
LAYOUT
  5
22
102
{ACAD_REACTORS
330
1A
102
}
330
1A
100
AcDbPlotSettings
  1

  2
none_device
  4

  6

 40
0.0
 41
0.0
 42
0.0
 43
0.0
 44
0.0
 45
0.0
 46
0.0
 47
0.0
 48
0.0
 49
0.0
140
0.0
141
0.0
142
1.0
143
1.0
 70
  1712
 72
     0
 73
     0
 74
     0
  7

 75
     0
 76
     0
 77
     2
 78
   300
147
1.0
148
0.0
149
0.0
100
AcDbLayout
  1
Model
 70
     1
 71
     0
 10
0.0
 20
0.0
 11
12.0
 21
9.0
 12
0.0
 22
0.0
 32
0.0
 14
1.000000000000000E+20
 24
1.000000000000000E+20
 34
1.000000000000000E+20
 15
-1.000000000000000E+20
 25
-1.000000000000000E+20
 35
-1.000000000000000E+20
146
0.0
 13
0.0
 23
0.0
 33
0.0
 16
1.0
 26
0.0
 36
0.0
 17
0.0
 27
1.0
 37
0.0
 76
     0
330
1F
331
29
  0
MATERIAL
  5
3D
102
{ACAD_REACTORS
330
3B
102
}
330
3B
100
AcDbMaterial
  1
ByBlock
 72
     1
 94
      127
  0
MATERIAL
  5
3C
102
{ACAD_REACTORS
330
3B
102
}
330
3B
100
AcDbMaterial
  1
ByLayer
 72
     1
 94
      127
  0
MATERIAL
  5
3E
102
{ACAD_REACTORS
330
3B
102
}
330
3B
100
AcDbMaterial
  1
Global
 72
     1
 94
      127
  0
MLINESTYLE
  5
18
102
{ACAD_REACTORS
330
17
102
}
330
17
100
AcDbMlineStyle
  2
Standard
 70
     0
  3

 62
   256
 51
90.0
 52
90.0
 71
     2
 49
0.5
 62
   256
  6
BYLAYER
 49
-0.5
 62
   256
  6
BYLAYER
  0
ACDBPLACEHOLDER
  5
F
102
{ACAD_REACTORS
330
E
102
}
330
E
  0
VISUALSTYLE
  5
2F
102
{ACAD_REACTORS
330
2A
102
}
330
2A
100
AcDbVisualStyle
  2
2dWireframe
 70
     4
177
     2
291
     0
 71
     0
176
     1
 72
     2
176
     1
 73
     0
176
     1
 90
        0
176
     1
 40
-0.6
176
     1
 41
-30.0
176
     1
 62
     5
 63
     7
421
 16777215
176
     1
 74
     1
176
     1
 91
        4
176
     1
 64
     7
176
     1
 65
   257
176
     1
 75
     1
176
     1
175
     1
176
     1
 42
1.0
176
     1
 92
        0
176
     1
 66
   257
176
     1
 43
1.0
176
     1
 76
     1
176
     1
 77
     6
176
     1
 78
     2
176
     1
 67
     7
176
     1
 79
     5
176
     1
170
     0
176
     1
171
     0
176
     1
290
     0
176
     1
 93
        1
176
     1
 44
0.0
176
     1
173
     0
176
     1
  0
VISUALSTYLE
  5
31
102
{ACAD_REACTORS
330
2A
102
}
330
2A
100
AcDbVisualStyle
  2
3D Hidden
 70
     6
177
     2
291
     0
 71
     1
176
     1
 72
     2
176
     1
 73
     2
176
     1
 90
        0
176
     1
 40
-0.6
176
     1
 41
-30.0
176
     1
 62
     5
 63
     7
421
 16777215
176
     1
 74
     2
176
     1
 91
        2
176
     1
 64
     7
176
     1
 65
   257
176
     1
 75
     2
176
     1
175
     1
176
     1
 42
40.0
176
     1
 92
        0
176
     1
 66
   257
176
     1
 43
1.0
176
     1
 76
     1
176
     1
 77
     6
176
     1
 78
     2
176
     1
 67
     7
176
     1
 79
     3
176
     1
170
     0
176
     1
171
     0
176
     1
290
     0
176
     1
 93
        1
176
     1
 44
0.0
176
     1
173
     0
176
     1
  0
VISUALSTYLE
  5
30
102
{ACAD_REACTORS
330
2A
102
}
330
2A
100
AcDbVisualStyle
  2
3dWireframe
 70
     5
177
     2
291
     0
 71
     0
176
     1
 72
     2
176
     1
 73
     0
176
     1
 90
        0
176
     1
 40
-0.6
176
     1
 41
-30.0
176
     1
 62
     5
 63
     7
421
 16777215
176
     1
 74
     1
176
     1
 91
        4
176
     1
 64
     7
176
     1
 65
   257
176
     1
 75
     1
176
     1
175
     1
176
     1
 42
1.0
176
     1
 92
        0
176
     1
 66
   257
176
     1
 43
1.0
176
     1
 76
     1
176
     1
 77
     6
176
     1
 78
     2
176
     1
 67
     7
176
     1
 79
     5
176
     1
170
     0
176
     1
171
     0
176
     1
290
     0
176
     1
 93
        1
176
     1
 44
0.0
176
     1
173
     0
176
     1
  0
VISUALSTYLE
  5
32
102
{ACAD_REACTORS
330
2A
102
}
330
2A
100
AcDbVisualStyle
  2
Basic
 70
     7
177
     2
291
     1
 71
     1
176
     1
 72
     0
176
     1
 73
     1
176
     1
 90
        0
176
     1
 40
-0.6
176
     1
 41
-30.0
176
     1
 62
     5
 63
     7
421
 16777215
176
     1
 74
     0
176
     1
 91
        4
176
     1
 64
     7
176
     1
 65
   257
176
     1
 75
     1
176
     1
175
     1
176
     1
 42
1.0
176
     1
 92
        8
176
     1
 66
     7
176
     1
 43
1.0
176
     1
 76
     1
176
     1
 77
     6
176
     1
 78
     2
176
     1
 67
     7
176
     1
 79
     5
176
     1
170
     0
176
     1
171
     0
176
     1
290
     0
176
     1
 93
        1
176
     1
 44
0.0
176
     1
173
     0
176
     1
  0
VISUALSTYLE
  5
36
102
{ACAD_REACTORS
330
2A
102
}
330
2A
100
AcDbVisualStyle
  2
Brighten
 70
    12
177
     2
291
     1
 71
     2
176
     1
 72
     2
176
     1
 73
     0
176
     1
 90
        0
176
     1
 40
-0.6
176
     1
 41
-30.0
176
     1
 62
     5
 63
     7
421
 16777215
176
     1
 74
     1
176
     1
 91
        4
176
     1
 64
     7
176
     1
 65
   257
176
     1
 75
     1
176
     1
175
     1
176
     1
 42
1.0
176
     1
 92
        8
176
     1
 66
     7
176
     1
 43
1.0
176
     1
 76
     1
176
     1
 77
     6
176
     1
 78
     2
176
     1
 67
     7
176
     1
 79
     5
176
     1
170
     0
176
     1
171
     0
176
     1
290
     0
176
     1
 93
        1
176
     1
 44
50.0
176
     1
173
     0
176
     1
  0
VISUALSTYLE
  5
3A
102
{ACAD_REACTORS
330
2A
102
}
330
2A
100
AcDbVisualStyle
  2
ColorChange
 70
    16
177
     2
291
     1
 71
     2
176
     1
 72
     2
176
     1
 73
     3
176
     1
 90
        0
176
     1
 40
-0.6
176
     1
 41
-30.0
176
     1
 62
     5
 63
     8
421
  8421504
176
     1
 74
     1
176
     1
 91
        4
176
     1
 64
     7
176
     1
 65
   257
176
     1
 75
     1
176
     1
175
     1
176
     1
 42
1.0
176
     1
 92
        8
176
     1
 66
     8
424
  8421504
176
     1
 43
1.0
176
     1
 76
     1
176
     1
 77
     6
176
     1
 78
     2
176
     1
 67
     7
176
     1
 79
     5
176
     1
170
     0
176
     1
171
     0
176
     1
290
     0
176
     1
 93
        1
176
     1
 44
0.0
176
     1
173
     0
176
     1
  0
VISUALSTYLE
  5
34
102
{ACAD_REACTORS
330
2A
102
}
330
2A
100
AcDbVisualStyle
  2
Conceptual
 70
     9
177
     2
291
     0
 71
     3
176
     1
 72
     2
176
     1
 73
     0
176
     1
 90
        0
176
     1
 40
-0.6
176
     1
 41
-30.0
176
     1
 62
     5
 63
     7
421
 16777215
176
     1
 74
     2
176
     1
 91
        2
176
     1
 64
     7
176
     1
 65
   257
176
     1
 75
     1
176
     1
175
     1
176
     1
 42
40.0
176
     1
 92
        8
176
     1
 66
     7
176
     1
 43
1.0
176
     1
 76
     1
176
     1
 77
     6
176
     1
 78
     2
176
     1
 67
     7
176
     1
 79
     3
176
     1
170
     0
176
     1
171
     0
176
     1
290
     0
176
     1
 93
        1
176
     1
 44
0.0
176
     1
173
     0
176
     1
  0
VISUALSTYLE
  5
35
102
{ACAD_REACTORS
330
2A
102
}
330
2A
100
AcDbVisualStyle
  2
Dim
 70
    11
177
     2
291
     1
 71
     2
176
     1
 72
     2
176
     1
 73
     0
176
     1
 90
        0
176
     1
 40
-0.6
176
     1
 41
-30.0
176
     1
 62
     5
 63
     7
421
 16777215
176
     1
 74
     1
176
     1
 91
        4
176
     1
 64
     7
176
     1
 65
   257
176
     1
 75
     1
176
     1
175
     1
176
     1
 42
1.0
176
     1
 92
        8
176
     1
 66
     7
176
     1
 43
1.0
176
     1
 76
     1
176
     1
 77
     6
176
     1
 78
     2
176
     1
 67
     7
176
     1
 79
     5
176
     1
170
     0
176
     1
171
     0
176
     1
290
     0
176
     1
 93
        1
176
     1
 44
-50.0
176
     1
173
     0
176
     1
  0
VISUALSTYLE
  5
39
102
{ACAD_REACTORS
330
2A
102
}
330
2A
100
AcDbVisualStyle
  2
Facepattern
 70
    15
177
     2
291
     1
 71
     2
176
     1
 72
     2
176
     1
 73
     0
176
     1
 90
        0
176
     1
 40
-0.6
176
     1
 41
-30.0
176
     1
 62
     5
 63
     7
421
 16777215
176
     1
 74
     1
176
     1
 91
        4
176
     1
 64
     7
176
     1
 65
   257
176
     1
 75
     1
176
     1
175
     1
176
     1
 42
1.0
176
     1
 92
        8
176
     1
 66
     7
176
     1
 43
1.0
176
     1
 76
     1
176
     1
 77
     6
176
     1
 78
     2
176
     1
 67
     7
176
     1
 79
     5
176
     1
170
     0
176
     1
171
     0
176
     1
290
     0
176
     1
 93
        1
176
     1
 44
0.0
176
     1
173
     0
176
     1
  0
VISUALSTYLE
  5
2B
102
{ACAD_REACTORS
330
2A
102
}
330
2A
100
AcDbVisualStyle
  2
Flat
 70
     0
177
     2
291
     1
 71
     2
176
     1
 72
     1
176
     1
 73
     1
176
     1
 90
        2
176
     1
 40
-0.6
176
     1
 41
30.0
176
     1
 62
     5
 63
     7
421
 16777215
176
     1
 74
     0
176
     1
 91
        4
176
     1
 64
     7
176
     1
 65
   257
176
     1
 75
     1
176
     1
175
     1
176
     1
 42
1.0
176
     1
 92
        8
176
     1
 66
     7
176
     1
 43
1.0
176
     1
 76
     1
176
     1
 77
     6
176
     1
 78
     2
176
     1
 67
     7
176
     1
 79
     5
176
     1
170
     0
176
     1
171
     0
176
     1
290
     0
176
     1
 93
       13
176
     1
 44
0.0
176
     1
173
     0
176
     1
  0
VISUALSTYLE
  5
2C
102
{ACAD_REACTORS
330
2A
102
}
330
2A
100
AcDbVisualStyle
  2
FlatWithEdges
 70
     1
177
     2
291
     1
 71
     2
176
     1
 72
     1
176
     1
 73
     1
176
     1
 90
        2
176
     1
 40
-0.6
176
     1
 41
30.0
176
     1
 62
     5
 63
     7
421
 16777215
176
     1
 74
     1
176
     1
 91
        4
176
     1
 64
     7
176
     1
 65
   257
176
     1
 75
     1
176
     1
175
     1
176
     1
 42
1.0
176
     1
 92
        0
176
     1
 66
   257
176
     1
 43
1.0
176
     1
 76
     1
176
     1
 77
     6
176
     1
 78
     2
176
     1
 67
     7
176
     1
 79
     5
176
     1
170
     0
176
     1
171
     0
176
     1
290
     0
176
     1
 93
       13
176
     1
 44
0.0
176
     1
173
     0
176
     1
  0
VISUALSTYLE
  5
2D
102
{ACAD_REACTORS
330
2A
102
}
330
2A
100
AcDbVisualStyle
  2
Gouraud
 70
     2
177
     2
291
     1
 71
     2
176
     1
 72
     2
176
     1
 73
     1
176
     1
 90
        2
176
     1
 40
-0.6
176
     1
 41
30.0
176
     1
 62
     5
 63
     7
421
 16777215
176
     1
 74
     0
176
     1
 91
        4
176
     1
 64
     7
176
     1
 65
   257
176
     1
 75
     1
176
     1
175
     1
176
     1
 42
1.0
176
     1
 92
        0
176
     1
 66
     7
176
     1
 43
1.0
176
     1
 76
     1
176
     1
 77
     6
176
     1
 78
     2
176
     1
 67
     7
176
     1
 79
     5
176
     1
170
     0
176
     1
171
     0
176
     1
290
     0
176
     1
 93
       13
176
     1
 44
0.0
176
     1
173
     0
176
     1
  0
VISUALSTYLE
  5
2E
102
{ACAD_REACTORS
330
2A
102
}
330
2A
100
AcDbVisualStyle
  2
GouraudWithEdges
 70
     3
177
     2
291
     1
 71
     2
176
     1
 72
     2
176
     1
 73
     1
176
     1
 90
        2
176
     1
 40
-0.6
176
     1
 41
30.0
176
     1
 62
     5
 63
     7
421
 16777215
176
     1
 74
     1
176
     1
 91
        4
176
     1
 64
     7
176
     1
 65
   257
176
     1
 75
     1
176
     1
175
     1
176
     1
 42
1.0
176
     1
 92
        0
176
     1
 66
   257
176
     1
 43
1.0
176
     1
 76
     1
176
     1
 77
     6
176
     1
 78
     2
176
     1
 67
     7
176
     1
 79
     5
176
     1
170
     0
176
     1
171
     0
176
     1
290
     0
176
     1
 93
       13
176
     1
 44
0.0
176
     1
173
     0
176
     1
  0
VISUALSTYLE
  5
38
102
{ACAD_REACTORS
330
2A
102
}
330
2A
100
AcDbVisualStyle
  2
Linepattern
 70
    14
177
     2
291
     1
 71
     2
176
     1
 72
     2
176
     1
 73
     0
176
     1
 90
        0
176
     1
 40
-0.6
176
     1
 41
-30.0
176
     1
 62
     5
 63
     7
421
 16777215
176
     1
 74
     1
176
     1
 91
        4
176
     1
 64
     7
176
     1
 65
   257
176
     1
 75
     7
176
     1
175
     7
176
     1
 42
1.0
176
     1
 92
        8
176
     1
 66
     7
176
     1
 43
1.0
176
     1
 76
     1
176
     1
 77
     6
176
     1
 78
     2
176
     1
 67
     7
176
     1
 79
     5
176
     1
170
     0
176
     1
171
     0
176
     1
290
     0
176
     1
 93
        1
176
     1
 44
0.0
176
     1
173
     0
176
     1
  0
VISUALSTYLE
  5
33
102
{ACAD_REACTORS
330
2A
102
}
330
2A
100
AcDbVisualStyle
  2
Realistic
 70
     8
177
     2
291
     0
 71
     2
176
     1
 72
     2
176
     1
 73
     0
176
     1
 90
        0
176
     1
 40
-0.6
176
     1
 41
-30.0
176
     1
 62
     5
 63
     7
421
 16777215
176
     1
 74
     1
176
     1
 91
        0
176
     1
 64
     7
176
     1
 65
   257
176
     1
 75
     1
176
     1
175
     1
176
     1
 42
1.0
176
     1
 92
        8
176
     1
 66
     8
424
  7895160
176
     1
 43
1.0
176
     1
 76
     1
176
     1
 77
     6
176
     1
 78
     2
176
     1
 67
     7
176
     1
 79
     5
176
     1
170
     0
176
     1
171
     0
176
     1
290
     0
176
     1
 93
       13
176
     1
 44
0.0
176
     1
173
     0
176
     1
  0
VISUALSTYLE
  5
37
102
{ACAD_REACTORS
330
2A
102
}
330
2A
100
AcDbVisualStyle
  2
Thicken
 70
    13
177
     2
291
     1
 71
     2
176
     1
 72
     2
176
     1
 73
     0
176
     1
 90
        0
176
     1
 40
-0.6
176
     1
 41
-30.0
176
     1
 62
     5
 63
     7
421
 16777215
176
     1
 74
     1
176
     1
 91
        4
176
     1
 64
     7
176
     1
 65
   257
176
     1
 75
     1
176
     1
175
     1
176
     1
 42
1.0
176
     1
 92
       12
176
     1
 66
     7
176
     1
 43
1.0
176
     1
 76
     1
176
     1
 77
     6
176
     1
 78
     2
176
     1
 67
     7
176
     1
 79
     5
176
     1
170
     0
176
     1
171
     0
176
     1
290
     0
176
     1
 93
        1
176
     1
 44
0.0
176
     1
173
     0
176
     1
  0
ENDSEC
  0
EOF
